  0
SECTION
  2
HEADER
  9
$ACADVER
  1
AC1014
  9
$ACADMAINTVER
 70
     0
  9
$DWGCODEPAGE
  3
ANSI_1252
  9
$INSBASE
 10
0.0
 20
0.0
 30
0.0
  9
$EXTMIN
 10
0.0
 20
0.0
 30
0.0
  9
$EXTMAX
 10
8.5
 20
11.0
 30
0.0
  9
$LIMMIN
 10
0.0
 20
0.0
  9
$LIMMAX
 10
12.0
 20
9.0
  9
$ORTHOMODE
 70
     0
  9
$REGENMODE
 70
     1
  9
$FILLMODE
 70
     0
  9
$QTEXTMODE
 70
     0
  9
$MIRRTEXT
 70
     1
  9
$DRAGMODE
 70
     2
  9
$LTSCALE
 40
0.085
  9
$OSMODE
 70
    37
  9
$ATTMODE
 70
     1
  9
$TEXTSIZE
 40
0.2
  9
$TRACEWID
 40
0.05
  9
$TEXTSTYLE
  7
STANDARD
  9
$CLAYER
  8
0
  9
$CELTYPE
  6
BYLAYER
  9
$CECOLOR
 62
   256
  9
$CELTSCALE
 40
1.0
  9
$DELOBJ
 70
     1
  9
$DISPSILH
 70
     0
  9
$DIMSCALE
 40
1.0
  9
$DIMASZ
 40
0.18
  9
$DIMEXO
 40
0.0625
  9
$DIMDLI
 40
0.38
  9
$DIMRND
 40
0.0
  9
$DIMDLE
 40
0.0
  9
$DIMEXE
 40
0.18
  9
$DIMTP
 40
0.0
  9
$DIMTM
 40
0.0
  9
$DIMTXT
 40
0.18
  9
$DIMCEN
 40
0.09
  9
$DIMTSZ
 40
0.0
  9
$DIMTOL
 70
     0
  9
$DIMLIM
 70
     0
  9
$DIMTIH
 70
     0
  9
$DIMTOH
 70
     0
  9
$DIMSE1
 70
     0
  9
$DIMSE2
 70
     0
  9
$DIMTAD
 70
     1
  9
$DIMZIN
 70
     0
  9
$DIMBLK
  1

  9
$DIMASO
 70
     1
  9
$DIMSHO
 70
     1
  9
$DIMPOST
  1

  9
$DIMAPOST
  1

  9
$DIMALT
 70
     0
  9
$DIMALTD
 70
     2
  9
$DIMALTF
 40
25.4
  9
$DIMLFAC
 40
1.0
  9
$DIMTOFL
 70
     0
  9
$DIMTVP
 40
0.0
  9
$DIMTIX
 70
     0
  9
$DIMSOXD
 70
     0
  9
$DIMSAH
 70
     0
  9
$DIMBLK1
  1

  9
$DIMBLK2
  1

  9
$DIMSTYLE
  2
STANDARD
  9
$DIMCLRD
 70
     0
  9
$DIMCLRE
 70
     0
  9
$DIMCLRT
 70
     0
  9
$DIMTFAC
 40
1.0
  9
$DIMGAP
 40
0.09
  9
$DIMJUST
 70
     0
  9
$DIMSD1
 70
     0
  9
$DIMSD2
 70
     0
  9
$DIMTOLJ
 70
     1
  9
$DIMTZIN
 70
     0
  9
$DIMALTZ
 70
     0
  9
$DIMALTTZ
 70
     0
  9
$DIMFIT
 70
     5
  9
$DIMUPT
 70
     0
  9
$DIMUNIT
 70
     2
  9
$DIMDEC
 70
     2
  9
$DIMTDEC
 70
     4
  9
$DIMALTU
 70
     2
  9
$DIMALTTD
 70
     2
  9
$DIMTXSTY
  7
STANDARD
  9
$DIMAUNIT
 70
     0
  9
$LUNITS
 70
     2
  9
$LUPREC
 70
     4
  9
$SKETCHINC
 40
0.1
  9
$FILLETRAD
 40
0.5
  9
$AUNITS
 70
     0
  9
$AUPREC
 70
     0
  9
$MENU
  1
.
  9
$ELEVATION
 40
0.0
  9
$PELEVATION
 40
0.0
  9
$THICKNESS
 40
0.0
  9
$LIMCHECK
 70
     0
  9
$BLIPMODE
 70
     0
  9
$CHAMFERA
 40
0.5
  9
$CHAMFERB
 40
0.5
  9
$CHAMFERC
 40
1.0
  9
$CHAMFERD
 40
0.0
  9
$SKPOLY
 70
     0
  9
$TDCREATE
 40
2450772.666465926
  9
$TDUPDATE
 40
2457587.656747685
  9
$TDINDWG
 40
0.0011565046
  9
$TDUSRTIMER
 40
0.0011565046
  9
$USRTIMER
 70
     1
  9
$ANGBASE
 50
0.0
  9
$ANGDIR
 70
     0
  9
$PDMODE
 70
     0
  9
$PDSIZE
 40
0.0
  9
$PLINEWID
 40
0.0
  9
$COORDS
 70
     1
  9
$SPLFRAME
 70
     0
  9
$SPLINETYPE
 70
     6
  9
$SPLINESEGS
 70
     8
  9
$ATTDIA
 70
     0
  9
$ATTREQ
 70
     1
  9
$HANDLING
 70
     1
  9
$HANDSEED
  5
164
  9
$SURFTAB1
 70
     6
  9
$SURFTAB2
 70
     6
  9
$SURFTYPE
 70
     6
  9
$SURFU
 70
     6
  9
$SURFV
 70
     6
  9
$UCSNAME
  2

  9
$UCSORG
 10
0.0
 20
0.0
 30
0.0
  9
$UCSXDIR
 10
1.0
 20
0.0
 30
0.0
  9
$UCSYDIR
 10
0.0
 20
1.0
 30
0.0
  9
$PUCSNAME
  2

  9
$PUCSORG
 10
0.0
 20
0.0
 30
0.0
  9
$PUCSXDIR
 10
1.0
 20
0.0
 30
0.0
  9
$PUCSYDIR
 10
0.0
 20
1.0
 30
0.0
  9
$USERI1
 70
     0
  9
$USERI2
 70
     0
  9
$USERI3
 70
     0
  9
$USERI4
 70
     0
  9
$USERI5
 70
     0
  9
$USERR1
 40
0.0
  9
$USERR2
 40
0.0
  9
$USERR3
 40
0.0
  9
$USERR4
 40
0.0
  9
$USERR5
 40
0.0
  9
$WORLDVIEW
 70
     1
  9
$SHADEDGE
 70
     3
  9
$SHADEDIF
 70
    70
  9
$TILEMODE
 70
     1
  9
$MAXACTVP
 70
    48
  9
$PINSBASE
 10
0.0
 20
0.0
 30
0.0
  9
$PLIMCHECK
 70
     0
  9
$PEXTMIN
 10
0.0
 20
0.0
 30
0.0
  9
$PEXTMAX
 10
0.0
 20
0.0
 30
0.0
  9
$PLIMMIN
 10
0.0
 20
0.0
  9
$PLIMMAX
 10
12.0
 20
9.0
  9
$UNITMODE
 70
     0
  9
$VISRETAIN
 70
     1
  9
$PLINEGEN
 70
     0
  9
$PSLTSCALE
 70
     1
  9
$TREEDEPTH
 70
  3020
  9
$PICKSTYLE
 70
     1
  9
$CMLSTYLE
  2
STANDARD
  9
$CMLJUST
 70
     0
  9
$CMLSCALE
 40
1.0
  9
$PROXYGRAPHICS
 70
     1
  9
$MEASUREMENT
 70
     0
  0
ENDSEC
  0
SECTION
  2
CLASSES
  0
CLASS
  1
LWPOLYLINE
  2
AcDbPolyline
  3
AutoCAD 2000
 90
       20
280
     0
281
     1
  0
CLASS
  1
IMAGE
  2
AcDbRasterImage
  3
ISM
 90
       21
280
     0
281
     1
  0
CLASS
  1
OLE2FRAME
  2
AcDbOle2Frame
  3
AutoCAD 2000
 90
       21
280
     0
281
     1
  0
CLASS
  1
HATCH
  2
AcDbHatch
  3
AutoCAD 2000
 90
       20
280
     0
281
     1
  0
CLASS
  1
DICTIONARYVAR
  2
AcDbDictionaryVar
  3
ObjectDBX Classes
 90
       20
280
     0
281
     0
  0
CLASS
  1
RASTERVARIABLES
  2
AcDbRasterVariables
  3
ISM
 90
       21
280
     0
281
     0
  0
CLASS
  1
IMAGEDEF
  2
AcDbRasterImageDef
  3
ISM
 90
       21
280
     0
281
     0
  0
CLASS
  1
IMAGEDEF_REACTOR
  2
AcDbRasterImageDefReactor
  3
ISM
 90
       21
280
     0
281
     0
  0
CLASS
  1
IDBUFFER
  2
AcDbIdBuffer
  3
ObjectDBX Classes
 90
       20
280
     0
281
     0
  0
CLASS
  1
SPATIAL_FILTER
  2
AcDbSpatialFilter
  3
ObjectDBX Classes
 90
       20
280
     0
281
     0
  0
CLASS
  1
XRECORD
  2
AcDbXrecord
  3
AutoCAD 2000
 90
       21
280
     0
281
     0
  0
CLASS
  1
SORTENTSTABLE
  2
AcDbSortentsTable
  3
"AutoCAD"
 90
        0
280
     0
281
     0
  0
CLASS
  1
LAYER_INDEX
  2
AcDbLayerIndex
  3
"Acad"
 90
        0
280
     0
281
     0
  0
CLASS
  1
SPATIAL_INDEX
  2
AcDbSpatialIndex
  3
"Acad"
 90
        0
280
     0
281
     0
  0
CLASS
  1
OBJECT_PTR
  2
CAseDLPNTableRecord
  3
"ASE-LPNTableRecord"
 90
        1
280
     0
281
     0
  0
CLASS
  1
LAYOUT
  2
AcDbLayout
  3
"AutoCAD 2000"
 90
        1
280
     0
281
     0
  0
CLASS
  1
PLOTSETTINGS
  2
AcDbPlotsettings
  3
"AutoCAD 2000"
 90
        1
280
     0
281
     0
  0
CLASS
  1
ACDBDICTIONARYWDFLT
  2
AcDbDictionaryWithDefault
  3
"AutoCAD 2000"
 90
        1
280
     0
281
     0
  0
CLASS
  1
ACDBPLACEHOLDER
  2
AcDbPlaceholder
  3
"AutoCAD 2000"
 90
        1
280
     0
281
     0
  0
CLASS
  1
VBA_PROJECT
  2
AcDbVbaProject
  3
"AutoCAD 2000"
 90
        1
280
     0
281
     0
  0
CLASS
  1
WIPEOUT
  2
AcDbWipeout
  3
"AutoCAD 2000"
 90
        1
280
     0
281
     1
  0
CLASS
  1
WIPEOUTVARIABLES
  2
AcDbWipeoutVariables
  3
"AutoCAD 2000"
 90
        1
280
     0
281
     0
  0
CLASS
  1
RTEXT
  2
RText
  3
RText|AutoCAD Express Tool|expresstools@autodesk.com
 90
        1
280
     0
281
     1
  0
CLASS
  1
ARCALIGNEDTEXT
  2
AcDbArcAlignedText
  3
RText|AutoCAD Express Tool|expresstools@autodesk.com
 90
        1
280
     0
281
     1
  0
ENDSEC
  0
SECTION
  2
TABLES
  0
TABLE
  2
VPORT
  5
8
100
AcDbSymbolTable
 70
     1
  0
VPORT
  5
25
100
AcDbSymbolTableRecord
100
AcDbViewportTableRecord
  2
*ACTIVE
 70
     0
 10
0.0
 20
0.0
 11
1.0
 21
1.0
 12
4.25
 22
5.5
 13
0.0
 23
0.0
 14
0.5
 24
0.5
 15
0.5
 25
0.5
 16
0.0
 26
0.0
 36
1.0
 17
0.0
 27
0.0
 37
0.0
 40
11.0
 41
0.772727
 42
50.0
 43
0.0
 44
0.0
 50
0.0
 51
0.0
 71
     0
 72
   100
 73
     1
 74
     1
 75
     0
 76
     0
 77
     0
 78
     0
  0
ENDTAB
  0
TABLE
  2
LTYPE
  5
5
100
AcDbSymbolTable
 70
     4
  0
LTYPE
  5
12
100
AcDbSymbolTableRecord
100
AcDbLinetypeTableRecord
  2
BYBLOCK
 70
     0
  3

 72
    65
 73
     0
 40
0.0
  0
LTYPE
  5
13
100
AcDbSymbolTableRecord
100
AcDbLinetypeTableRecord
  2
BYLAYER
 70
     0
  3

 72
    65
 73
     0
 40
0.0
  0
LTYPE
  5
14
100
AcDbSymbolTableRecord
100
AcDbLinetypeTableRecord
  2
CONTINUOUS
 70
     0
  3
Solid line
 72
    65
 73
     0
 40
0.0
  0
LTYPE
  5
4D
100
AcDbSymbolTableRecord
100
AcDbLinetypeTableRecord
  2
DASHED
 70
     0
  3
DASHED
 72
    65
 73
     2
 40
0.75
 49
0.5
 74
     0
 49
-0.25
 74
     0
  0
ENDTAB
  0
TABLE
  2
LAYER
  5
2
100
AcDbSymbolTable
 70
     2
  0
LAYER
  5
E
100
AcDbSymbolTableRecord
100
AcDbLayerTableRecord
  2
0
 70
     0
 62
     7
  6
CONTINUOUS
  0
LAYER
  5
32
100
AcDbSymbolTableRecord
100
AcDbLayerTableRecord
  2
NEW_TREES
 70
     0
 62
     7
  6
CONTINUOUS
  0
ENDTAB
  0
TABLE
  2
STYLE
  5
3
100
AcDbSymbolTable
 70
     1
  0
STYLE
  5
F
100
AcDbSymbolTableRecord
100
AcDbTextStyleTableRecord
  2
STANDARD
 70
     0
 40
0.0
 41
1.0
 50
0.0
 71
     0
 42
0.2
  3
txt.shx
  4

  0
ENDTAB
  0
TABLE
  2
VIEW
  5
6
100
AcDbSymbolTable
 70
     0
  0
ENDTAB
  0
TABLE
  2
UCS
  5
7
100
AcDbSymbolTable
 70
     0
  0
ENDTAB
  0
TABLE
  2
APPID
  5
9
100
AcDbSymbolTable
 70
     1
  0
APPID
  5
10
100
AcDbSymbolTableRecord
100
AcDbRegAppTableRecord
  2
ACAD
 70
     0
  0
ENDTAB
  0
TABLE
  2
DIMSTYLE
  5
A
100
AcDbSymbolTable
 70
     1
  0
DIMSTYLE
105
1D
100
AcDbSymbolTableRecord
100
AcDbDimStyleTableRecord
  2
STANDARD
 70
     0
  3

  4

  5

  6

  7

 40
1.0
 41
0.18
 42
0.0625
 43
0.38
 44
0.18
 45
0.0
 46
0.0
 47
0.0
 48
0.0
 71
     0
 72
     0
 73
     1
 74
     1
 75
     0
 76
     0
 77
     0
 78
     0
140
0.18
141
0.09
142
0.0
143
25.4
144
1.0
145
0.0
146
1.0
147
0.09
170
     0
171
     2
172
     0
173
     0
174
     0
175
     0
176
     0
177
     0
178
     0
270
     2
271
     4
272
     4
273
     2
274
     2
275
     0
280
     0
281
     0
282
     0
283
     1
284
     0
285
     0
286
     0
287
     3
288
     0
340
F
  0
ENDTAB
  0
TABLE
  2
BLOCK_RECORD
  5
1
100
AcDbSymbolTable
 70
     4
  0
BLOCK_RECORD
  5
18
100
AcDbSymbolTableRecord
100
AcDbBlockTableRecord
  2
*MODEL_SPACE
  0
BLOCK_RECORD
  5
15
100
AcDbSymbolTableRecord
100
AcDbBlockTableRecord
  2
*PAPER_SPACE
  0
BLOCK_RECORD
  5
133
100
AcDbSymbolTableRecord
100
AcDbBlockTableRecord
  2
FRAME
  0
BLOCK_RECORD
  5
137
100
AcDbSymbolTableRecord
100
AcDbBlockTableRecord
  2
DECID__TREE_B
  0
BLOCK_RECORD
  5
155
100
AcDbSymbolTableRecord
100
AcDbBlockTableRecord
  2
DECID__SHRUB_E
  0
BLOCK_RECORD
  5
160
100
AcDbSymbolTableRecord
100
AcDbBlockTableRecord
  2
MULTIGON_CENTER
  0
ENDTAB
  0
ENDSEC
  0
SECTION
  2
BLOCKS
  0
BLOCK
  5
19
100
AcDbEntity
  8
0
100
AcDbBlockBegin
  2
*MODEL_SPACE
 70
     0
 10
0.0
 20
0.0
 30
0.0
  3
*MODEL_SPACE
  1

  0
ENDBLK
  5
1A
100
AcDbEntity
  8
0
100
AcDbBlockEnd
  0
BLOCK
  5
16
100
AcDbEntity
 67
     1
  8
0
100
AcDbBlockBegin
  2
*PAPER_SPACE
 70
     0
 10
0.0
 20
0.0
 30
0.0
  3
*PAPER_SPACE
  1

  0
ENDBLK
  5
17
100
AcDbEntity
 67
     1
  8
0
100
AcDbBlockEnd
  0
BLOCK
  5
134
100
AcDbEntity
  8
0
100
AcDbBlockBegin
  2
FRAME
 70
     0
 10
0.0
 20
0.0
 30
0.0
  3
FRAME
  1

  0
LWPOLYLINE
  5
135
100
AcDbEntity
  8
0
  6
CONTINUOUS
 62
     7
100
AcDbPolyline
 90
        4
 70
     1
 10
0.25
 20
0.25
 10
2.75
 20
0.25
 10
2.75
 20
2.75
 10
0.25
 20
2.75
  0
ENDBLK
  5
136
100
AcDbEntity
  8
0
100
AcDbBlockEnd
  0
BLOCK
  5
138
100
AcDbEntity
  8
0
100
AcDbBlockBegin
  2
DECID__TREE_B
 70
     0
 10
0.0
 20
0.0
 30
0.0
  3
DECID__TREE_B
  1

  0
LWPOLYLINE
  5
139
100
AcDbEntity
  8
NEW_TREES
  6
CONTINUOUS
 62
     7
100
AcDbPolyline
 90
        6
 70
     1
 10
135.6
 20
77.6
 10
136.2
 20
75.6
 10
137.2
 20
73.6
 10
142.2
 20
72.6
 10
142.8
 20
74.0
 10
142.2
 20
76.8
  0
LWPOLYLINE
  5
13A
100
AcDbEntity
  8
NEW_TREES
  6
CONTINUOUS
 62
     7
100
AcDbPolyline
 90
        6
 70
     1
 10
81.8
 20
117.8
 10
82.8
 20
116.4
 10
84.2
 20
115.4
 10
86.0
 20
114.8
 10
86.0
 20
119.8
 10
83.6
 20
121.0
  0
LWPOLYLINE
  5
13B
100
AcDbEntity
  8
NEW_TREES
  6
CONTINUOUS
 62
     7
100
AcDbPolyline
 90
        6
 70
     1
 10
84.6
 20
99.6
 10
85.8
 20
101.6
 10
87.6
 20
103.0
 10
89.6
 20
103.8
 10
89.6
 20
97.0
 10
86.2
 20
94.6
  0
LWPOLYLINE
  5
13C
100
AcDbEntity
  8
NEW_TREES
  6
CONTINUOUS
 62
     7
100
AcDbPolyline
 90
        6
 70
     1
 10
166.2
 20
80.8
 10
166.8
 20
83.8
 10
165.2
 20
86.2
 10
159.2
 20
86.2
 10
159.2
 20
84.0
 10
159.8
 20
83.0
  0
LWPOLYLINE
  5
13D
100
AcDbEntity
  8
NEW_TREES
  6
CONTINUOUS
 62
     7
100
AcDbPolyline
 90
        6
 70
     1
 10
76.4
 20
78.2
 10
77.6
 20
80.0
 10
79.4
 20
81.6
 10
81.6
 20
82.4
 10
81.6
 20
75.6
 10
78.0
 20
73.0
  0
LWPOLYLINE
  5
13E
100
AcDbEntity
  8
NEW_TREES
  6
CONTINUOUS
 62
     7
100
AcDbPolyline
 90
        8
 70
     1
 10
115.0
 20
67.2
 10
113.0
 20
68.0
 10
110.8
 20
67.8
 10
107.2
 20
65.6
 10
105.8
 20
61.4
 10
108.4
 20
61.2
 10
110.6
 20
61.8
 10
112.6
 20
63.2
  0
LWPOLYLINE
  5
13F
100
AcDbEntity
  8
NEW_TREES
  6
CONTINUOUS
 62
     7
100
AcDbPolyline
 90
        7
 70
     1
 10
130.8
 20
70.6
 10
131.2
 20
68.2
 10
131.0
 20
65.6
 10
128.6
 20
61.4
 10
126.4
 20
60.0
 10
126.0
 20
64.2
 10
127.6
 20
68.2
  0
LWPOLYLINE
  5
140
100
AcDbEntity
  8
NEW_TREES
  6
CONTINUOUS
 62
     7
100
AcDbPolyline
 90
        8
 70
     1
 10
86.2
 20
66.4
 10
88.2
 20
65.8
 10
92.2
 20
66.8
 10
94.6
 20
70.4
 10
94.8
 20
72.6
 10
92.4
 20
72.8
 10
88.4
 20
70.8
 10
87.0
 20
68.8
  0
LWPOLYLINE
  5
141
100
AcDbEntity
  8
NEW_TREES
  6
CONTINUOUS
 62
     7
100
AcDbPolyline
 90
        7
 70
     1
 10
76.0
 20
103.6
 10
74.6
 20
102.2
 10
73.0
 20
101.6
 10
69.6
 20
101.8
 10
67.0
 20
104.6
 10
70.8
 20
106.2
 10
72.8
 20
106.0
  0
LWPOLYLINE
  5
142
100
AcDbEntity
  8
NEW_TREES
  6
CONTINUOUS
 62
     7
100
AcDbPolyline
 90
        8
 70
     1
 10
134.0
 20
89.6
 10
131.2
 20
90.2
 10
126.2
 20
92.6
 10
124.0
 20
94.6
 10
125.8
 20
95.6
 10
127.6
 20
96.0
 10
131.2
 20
95.0
 10
133.6
 20
92.0
  0
LWPOLYLINE
  5
143
100
AcDbEntity
  8
NEW_TREES
  6
CONTINUOUS
 62
     7
100
AcDbPolyline
 90
        9
 70
     1
 10
161.6
 20
115.2
 10
162.6
 20
119.2
 10
164.0
 20
120.8
 10
165.6
 20
122.0
 10
169.8
 20
122.4
 10
172.0
 20
121.8
 10
169.8
 20
119.2
 10
167.4
 20
117.4
 10
164.6
 20
116.0
  0
LWPOLYLINE
  5
144
100
AcDbEntity
  8
NEW_TREES
  6
CONTINUOUS
 62
     7
100
AcDbPolyline
 90
        8
 70
     1
 10
165.8
 20
97.0
 10
168.6
 20
96.0
 10
174.4
 20
96.2
 10
177.2
 20
97.8
 10
174.2
 20
100.2
 10
172.4
 20
100.8
 10
170.4
 20
100.6
 10
166.8
 20
98.6
  0
LWPOLYLINE
  5
145
100
AcDbEntity
  8
NEW_TREES
  6
CONTINUOUS
 62
     7
100
AcDbPolyline
 90
        8
 70
     1
 10
109.8
 20
83.2
 10
107.6
 20
83.8
 10
105.6
 20
85.0
 10
103.2
 20
88.8
 10
102.6
 20
91.2
 10
105.0
 20
90.8
 10
107.0
 20
89.6
 10
109.6
 20
85.6
  0
LWPOLYLINE
  5
146
100
AcDbEntity
  8
NEW_TREES
  6
CONTINUOUS
 62
     7
100
AcDbPolyline
 90
        6
 70
     1
 10
145.8
 20
86.6
 10
145.8
 20
88.8
 10
147.4
 20
92.2
 10
149.0
 20
93.4
 10
149.4
 20
91.6
 10
148.6
 20
88.4
  0
LWPOLYLINE
  5
147
100
AcDbEntity
  8
NEW_TREES
  6
CONTINUOUS
 62
     7
100
AcDbPolyline
 90
        6
 70
     1
 10
133.2
 20
170.8
 10
135.8
 20
173.4
 10
136.2
 20
177.0
 10
134.2
 20
180.0
 10
132.2
 20
176.6
 10
132.0
 20
174.6
  0
LWPOLYLINE
  5
148
100
AcDbEntity
  8
NEW_TREES
  6
CONTINUOUS
 62
     7
100
AcDbPolyline
 90
        6
 70
     1
 10
81.6
 20
140.8
 10
82.0
 20
142.4
 10
81.0
 20
145.4
 10
78.2
 20
147.0
 10
78.4
 20
145.0
 10
79.0
 20
143.2
  0
LWPOLYLINE
  5
149
100
AcDbEntity
  8
NEW_TREES
  6
CONTINUOUS
 62
     7
100
AcDbPolyline
 90
        7
 70
     1
 10
169.2
 20
138.8
 10
169.4
 20
141.0
 10
169.0
 20
143.0
 10
166.2
 20
146.4
 10
162.2
 20
147.2
 10
162.8
 20
144.8
 10
165.2
 20
141.0
  0
LWPOLYLINE
  5
14A
100
AcDbEntity
  8
NEW_TREES
  6
CONTINUOUS
 62
     7
100
AcDbPolyline
 90
        7
 70
     1
 10
60.0
 20
130.4
 10
62.0
 20
130.4
 10
64.0
 20
129.6
 10
65.8
 20
128.4
 10
68.0
 20
124.4
 10
65.8
 20
124.4
 10
62.0
 20
126.6
  0
LWPOLYLINE
  5
14B
100
AcDbEntity
  8
NEW_TREES
  6
CONTINUOUS
 62
     7
100
AcDbPolyline
 90
        8
 70
     1
 10
114.6
 20
173.2
 10
117.6
 20
169.6
 10
118.4
 20
167.2
 10
118.6
 20
164.6
 10
117.0
 20
165.2
 10
115.4
 20
166.0
 10
114.2
 20
167.6
 10
113.8
 20
171.4
  0
LWPOLYLINE
  5
14C
100
AcDbEntity
  8
NEW_TREES
  6
CONTINUOUS
 62
     7
100
AcDbPolyline
 90
        7
 70
     1
 10
62.0
 20
144.8
 10
64.4
 20
143.8
 10
66.4
 20
142.2
 10
67.8
 20
140.0
 10
65.2
 20
139.2
 10
62.6
 20
140.6
 10
61.8
 20
143.4
  0
LWPOLYLINE
  5
14D
100
AcDbEntity
  8
NEW_TREES
  6
CONTINUOUS
 62
     7
100
AcDbPolyline
 90
        8
 70
     1
 10
180.0
 20
133.4
 10
177.2
 20
133.2
 10
171.8
 20
130.8
 10
169.6
 20
128.8
 10
173.2
 20
127.6
 10
175.0
 20
127.8
 10
178.4
 20
129.8
 10
179.4
 20
131.4
  0
LWPOLYLINE
  5
14E
100
AcDbEntity
  8
NEW_TREES
  6
CONTINUOUS
 62
     7
100
AcDbPolyline
 90
        8
 70
     1
 10
97.0
 20
178.8
 10
95.4
 20
177.8
 10
93.2
 20
174.4
 10
93.0
 20
172.4
 10
94.2
 20
168.4
 10
95.6
 20
167.0
 10
98.2
 20
171.2
 10
98.6
 20
173.8
  0
LWPOLYLINE
  5
14F
100
AcDbEntity
  8
NEW_TREES
  6
CONTINUOUS
 62
     7
100
AcDbPolyline
 90
        7
 70
     1
 10
140.2
 20
161.4
 10
142.6
 20
163.0
 10
146.4
 20
167.6
 10
147.6
 20
170.2
 10
143.6
 20
169.8
 10
140.8
 20
167.2
 10
139.8
 20
163.4
  0
LWPOLYLINE
  5
150
100
AcDbEntity
  8
NEW_TREES
  6
CONTINUOUS
 62
     7
100
AcDbPolyline
 90
        8
 70
     1
 10
74.2
 20
162.4
 10
77.4
 20
162.2
 10
78.6
 20
161.4
 10
80.0
 20
158.4
 10
79.8
 20
156.8
 10
78.2
 20
157.0
 10
75.2
 20
159.0
 10
74.4
 20
160.6
  0
LWPOLYLINE
  5
151
100
AcDbEntity
  8
NEW_TREES
  6
CONTINUOUS
 62
     7
100
AcDbPolyline
 90
        9
 70
     1
 10
165.4
 20
162.6
 10
165.6
 20
159.0
 10
164.6
 20
157.4
 10
161.4
 20
155.2
 10
159.4
 20
155.2
 10
156.2
 20
157.0
 10
157.4
 20
159.0
 10
159.0
 20
160.6
 10
163.0
 20
162.4
  0
LWPOLYLINE
  5
152
100
AcDbEntity
  8
NEW_TREES
  6
CONTINUOUS
 62
     7
100
AcDbPolyline
 90
      151
 70
     1
 10
119.6
 20
180.0
 10
120.6
 20
171.8
 10
122.0
 20
163.6
 10
143.4
 20
175.4
 10
122.0
 20
160.6
 10
121.6
 20
155.2
 10
121.8
 20
149.8
 10
122.6
 20
144.6
 10
123.8
 20
132.2
 10
125.0
 20
130.8
 10
128.4
 20
129.8
 10
130.2
 20
130.0
 10
139.4
 20
134.0
 10
144.6
 20
136.8
 10
146.6
 20
138.8
 10
149.4
 20
144.0
 10
153.2
 20
155.4
 10
156.2
 20
167.2
 10
156.2
 20
160.6
 10
155.2
 20
154.2
 10
153.6
 20
147.8
 10
161.8
 20
148.4
 10
169.8
 20
149.2
 10
161.2
 20
147.6
 10
152.8
 20
145.8
 10
149.0
 20
137.2
 10
146.2
 20
133.6
 10
178.4
 20
125.4
 10
167.2
 20
128.0
 10
156.0
 20
129.8
 10
144.4
 20
130.8
 10
137.8
 20
129.4
 10
133.0
 20
127.0
 10
131.2
 20
123.2
 10
132.4
 20
119.2
 10
143.8
 20
114.2
 10
152.2
 20
113.6
 10
160.8
 20
113.6
 10
169.2
 20
110.4
 10
173.6
 20
109.6
 10
178.2
 20
109.0
 10
173.8
 20
108.8
 10
169.4
 20
108.8
 10
161.0
 20
110.8
 10
164.2
 20
103.0
 10
166.8
 20
95.0
 10
168.8
 20
86.8
 10
165.8
 20
95.0
 10
162.2
 20
103.0
 10
158.0
 20
110.6
 10
153.4
 20
110.6
 10
148.6
 20
111.0
 10
152.2
 20
94.0
 10
160.4
 20
77.8
 10
155.6
 20
86.0
 10
150.0
 20
93.6
 10
145.0
 20
110.8
 10
133.0
 20
114.8
 10
130.0
 20
114.4
 10
125.2
 20
111.4
 10
122.4
 20
106.4
 10
122.8
 20
97.2
 10
123.8
 20
88.0
 10
130.2
 20
75.4
 10
137.0
 20
63.2
 10
123.2
 20
84.0
 10
114.6
 20
60.8
 10
121.8
 20
88.6
 10
118.8
 20
106.4
 10
117.2
 20
110.2
 10
115.4
 20
111.4
 10
111.6
 20
112.0
 10
109.6
 20
111.2
 10
104.8
 20
109.0
 10
103.2
 20
106.4
 10
102.2
 20
103.6
 10
101.4
 20
97.6
 10
102.2
 20
93.0
 10
101.8
 20
91.6
 10
100.2
 20
89.4
 10
98.0
 20
81.8
 10
96.4
 20
73.8
 10
95.4
 20
66.0
 10
95.8
 20
77.4
 10
96.8
 20
88.8
 10
73.6
 20
82.6
 10
86.0
 20
87.6
 10
98.6
 20
92.4
 10
98.4
 20
96.6
 10
100.0
 20
104.6
 10
101.6
 20
108.6
 10
99.0
 20
107.8
 10
96.2
 20
107.6
 10
93.4
 20
107.6
 10
67.6
 20
92.8
 10
89.0
 20
108.0
 10
60.8
 20
111.8
 10
92.2
 20
110.2
 10
95.4
 20
109.8
 10
98.6
 20
110.0
 10
104.4
 20
112.4
 10
108.8
 20
115.8
 10
111.2
 20
120.0
 10
111.2
 20
122.4
 10
109.4
 20
126.6
 10
107.8
 20
128.8
 10
103.8
 20
131.6
 10
101.4
 20
132.4
 10
92.2
 20
128.2
 10
88.0
 20
125.4
 10
60.6
 20
120.8
 10
77.0
 20
124.0
 10
85.0
 20
126.8
 10
92.8
 20
130.2
 10
100.2
 20
134.4
 10
92.8
 20
138.6
 10
77.8
 20
138.2
 10
62.8
 20
137.4
 10
72.0
 20
138.2
 10
80.8
 20
139.6
 10
89.8
 20
141.6
 10
86.2
 20
148.6
 10
82.8
 20
155.6
 10
79.8
 20
163.0
 10
82.6
 20
156.6
 10
86.0
 20
150.4
 10
89.8
 20
144.6
 10
92.4
 20
142.0
 10
95.6
 20
140.2
 10
99.0
 20
139.2
 10
108.4
 20
132.6
 10
110.4
 20
131.6
 10
112.6
 20
131.2
 10
116.8
 20
132.8
 10
119.0
 20
136.4
 10
119.6
 20
139.6
 10
119.0
 20
146.2
 10
117.8
 20
149.2
 10
114.0
 20
154.4
 10
107.4
 20
158.6
 10
101.2
 20
162.8
 10
94.6
 20
166.4
 10
87.8
 20
169.6
 10
111.6
 20
158.6
 10
107.2
 20
177.0
 10
113.4
 20
157.4
 10
115.8
 20
155.8
 10
117.8
 20
153.8
 10
119.4
 20
151.4
 10
119.8
 20
160.8
 10
119.8
 20
170.4
  0
MTEXT
  5
153
100
AcDbEntity
  8
NEW_TREES
100
AcDbMText
 10
120.0
 20
120.0
 30
0.0
 40
0.080892
 41
20.749225
 71
     5
 72
     5
  1
\C7;\fArial|b0|i0|;\H0.08089161850512;B
  0
ENDBLK
  5
154
100
AcDbEntity
  8
0
100
AcDbBlockEnd
  0
BLOCK
  5
156
100
AcDbEntity
  8
0
100
AcDbBlockBegin
  2
DECID__SHRUB_E
 70
     2
 10
0.0
 20
0.0
 30
0.0
  3
DECID__SHRUB_E
  1

  0
ATTDEF
  5
157
100
AcDbEntity
  8
0
100
AcDbText
 10
120.0
 20
120.0
 30
0.0
 40
0.2
  1
0
100
AcDbAttributeDefinition
  3
Common Name
  2
SUBTYPE
 70
     0
  0
ATTDEF
  5
158
100
AcDbEntity
  8
0
100
AcDbText
 10
120.0
 20
120.0
 30
0.0
 40
0.2
  1
0
100
AcDbAttributeDefinition
  3
Foliage Type
  2
SUBTYPE2
 70
     0
  0
ATTDEF
  5
159
100
AcDbEntity
  8
0
100
AcDbText
 10
120.0
 20
120.0
 30
0.0
 40
0.2
  1
Sitework
100
AcDbAttributeDefinition
  3
ShapeClass
  2
SHAPECLASS
 70
     0
  0
ATTDEF
  5
15A
100
AcDbEntity
  8
0
100
AcDbText
 10
120.0
 20
120.0
 30
0.0
 40
0.2
  1
Plant
100
AcDbAttributeDefinition
  3
ShapeType
  2
SHAPETYPE
 70
     0
  0
ATTDEF
  5
15B
100
AcDbEntity
  8
0
100
AcDbText
 10
120.0
 20
120.0
 30
0.0
 40
0.2
  1

100
AcDbAttributeDefinition
  3
SubShapeType
  2
SUBSHAPETYPE
 70
     0
  0
MTEXT
  5
15C
100
AcDbEntity
  8
NEW_TREES
100
AcDbMText
 10
120.0
 20
120.0
 30
0.0
 40
0.080892
 41
19.567097
 71
     5
 72
     5
  1
\C7;\fArial|b0|i0|;\H0.08089161850512;e
  0
LWPOLYLINE
  5
15D
100
AcDbEntity
  8
NEW_TREES
  6
CONTINUOUS
 62
     7
100
AcDbPolyline
 90
       57
 70
     1
 10
122.368421
 20
149.210526
 10
112.894737
 20
149.210526
 10
109.736842
 20
147.631579
 10
108.157895
 20
144.473684
 10
105.789474
 20
146.842105
 10
105.789474
 20
144.473684
 10
101.842105
 20
142.894737
 10
100.263158
 20
139.736842
 10
97.894737
 20
136.578947
 10
94.736842
 20
135.0
 10
94.736842
 20
131.842105
 10
94.736842
 20
130.263158
 10
91.578947
 20
124.736842
 10
91.578947
 20
116.842105
 10
93.157895
 20
116.842105
 10
92.368421
 20
115.263158
 10
93.157895
 20
114.473684
 10
91.578947
 20
112.894737
 10
91.578947
 20
110.526316
 10
93.157895
 20
106.578947
 10
96.315789
 20
104.210526
 10
98.684211
 20
101.842105
 10
99.473684
 20
103.421053
 10
101.052632
 20
104.210526
 10
101.842105
 20
101.842105
 10
101.052632
 20
101.052632
 10
101.052632
 20
97.894737
 10
104.210526
 20
96.315789
 10
105.789474
 20
93.947368
 10
108.157895
 20
91.578947
 10
117.631579
 20
90.789474
 10
119.210526
 20
93.157895
 10
120.789474
 20
90.789474
 10
123.947368
 20
90.789474
 10
132.631579
 20
93.157895
 10
136.578947
 20
95.526316
 10
137.368421
 20
98.684211
 10
141.315789
 20
98.684211
 10
146.052632
 20
107.368421
 10
147.631579
 20
112.105263
 10
146.052632
 20
114.473684
 10
145.263158
 20
114.473684
 10
146.052632
 20
115.263158
 10
148.421053
 20
116.052632
 10
147.631579
 20
123.947368
 10
147.631579
 20
127.105263
 10
148.421053
 20
128.684211
 10
147.631579
 20
131.052632
 10
143.684211
 20
135.0
 10
139.736842
 20
137.368421
 10
140.526316
 20
138.947368
 10
141.315789
 20
139.736842
 10
139.736842
 20
140.526316
 10
138.947368
 20
142.894737
 10
135.0
 20
144.473684
 10
130.263158
 20
145.263158
 10
126.315789
 20
148.421053
  0
LWPOLYLINE
  5
15E
100
AcDbEntity
  8
NEW_TREES
  6
CONTINUOUS
 62
     7
100
AcDbPolyline
 90
       57
 70
     1
 10
122.065034
 20
145.46875
 10
113.804899
 20
145.46875
 10
111.05152
 20
144.092061
 10
109.674831
 20
141.338682
 10
107.609797
 20
143.403716
 10
107.609797
 20
141.338682
 10
104.168074
 20
139.961993
 10
102.791385
 20
137.208615
 10
100.726351
 20
134.455236
 10
97.972973
 20
133.078547
 10
97.972973
 20
130.325169
 10
97.972973
 20
128.94848
 10
95.219595
 20
124.130068
 10
95.219595
 20
117.246622
 10
96.596284
 20
117.246622
 10
95.907939
 20
115.869932
 10
96.596284
 20
115.181588
 10
95.219595
 20
113.804899
 10
95.219595
 20
111.739865
 10
96.596284
 20
108.298142
 10
99.349662
 20
106.233108
 10
101.414696
 20
104.168074
 10
102.103041
 20
105.544764
 10
103.47973
 20
106.233108
 10
104.168074
 20
104.168074
 10
103.47973
 20
103.47973
 10
103.47973
 20
100.726351
 10
106.233108
 20
99.349662
 10
107.609797
 20
97.284628
 10
109.674831
 20
95.219595
 10
117.934966
 20
94.53125
 10
119.311655
 20
96.596284
 10
120.688345
 20
94.53125
 10
123.441723
 20
94.53125
 10
131.013514
 20
96.596284
 10
134.455236
 20
98.661318
 10
135.143581
 20
101.414696
 10
138.585304
 20
101.414696
 10
142.715372
 20
108.986486
 10
144.092061
 20
113.116554
 10
142.715372
 20
115.181588
 10
142.027027
 20
115.181588
 10
142.715372
 20
115.869932
 10
144.780405
 20
116.558277
 10
144.092061
 20
123.441723
 10
144.092061
 20
126.195101
 10
144.780405
 20
127.571791
 10
144.092061
 20
129.636824
 10
140.650338
 20
133.078547
 10
137.208615
 20
135.143581
 10
137.896959
 20
136.52027
 10
138.585304
 20
137.208615
 10
137.208615
 20
137.896959
 10
136.52027
 20
139.961993
 10
133.491554
 20
141.316945
 10
128.94848
 20
142.027027
 10
125.506757
 20
144.780405
  0
ENDBLK
  5
15F
100
AcDbEntity
  8
0
100
AcDbBlockEnd
  0
BLOCK
  5
161
100
AcDbEntity
  8
0
100
AcDbBlockBegin
  2
MULTIGON_CENTER
 70
     0
 10
0.0
 20
0.0
 30
0.0
  3
MULTIGON_CENTER
  1

  0
LWPOLYLINE
  5
162
100
AcDbEntity
  8
0
  6
CONTINUOUS
 62
     7
100
AcDbPolyline
 90
        5
 70
     1
 10
2.0
 20
0.633975
 10
2.0
 20
2.366025
 10
0.5
 20
1.5
 10
2.0
 20
0.633975
 10
0.5
 20
1.5
  0
ENDBLK
  5
163
100
AcDbEntity
  8
0
100
AcDbBlockEnd
  0
ENDSEC
  0
SECTION
  2
ENTITIES
  0
LWPOLYLINE
  5
33
102
{ACAD_REACTORS
330
31
102
}
100
AcDbEntity
  8
NEW_TREES
  6
CONTINUOUS
 62
     7
100
AcDbPolyline
 90
        6
 70
     1
 10
2.492917
 20
6.057457
 10
2.501667
 20
6.02829
 10
2.51625
 20
5.999123
 10
2.589167
 20
5.98454
 10
2.597917
 20
6.004957
 10
2.589167
 20
6.04579
  0
LWPOLYLINE
  5
34
102
{ACAD_REACTORS
330
31
102
}
100
AcDbEntity
  8
NEW_TREES
  6
CONTINUOUS
 62
     7
100
AcDbPolyline
 90
        6
 70
     1
 10
1.708333
 20
6.643707
 10
1.722917
 20
6.62329
 10
1.743333
 20
6.608707
 10
1.769583
 20
6.599957
 10
1.769583
 20
6.672873
 10
1.734583
 20
6.690373
  0
LWPOLYLINE
  5
35
102
{ACAD_REACTORS
330
31
102
}
100
AcDbEntity
  8
NEW_TREES
  6
CONTINUOUS
 62
     7
100
AcDbPolyline
 90
        6
 70
     1
 10
1.749167
 20
6.37829
 10
1.766667
 20
6.407457
 10
1.792917
 20
6.427873
 10
1.822083
 20
6.43954
 10
1.822083
 20
6.340373
 10
1.7725
 20
6.305373
  0
LWPOLYLINE
  5
36
102
{ACAD_REACTORS
330
31
102
}
100
AcDbEntity
  8
NEW_TREES
  6
CONTINUOUS
 62
     7
100
AcDbPolyline
 90
        6
 70
     1
 10
2.939167
 20
6.104123
 10
2.947917
 20
6.147873
 10
2.924583
 20
6.182873
 10
2.837083
 20
6.182873
 10
2.837083
 20
6.15079
 10
2.845833
 20
6.136207
  0
LWPOLYLINE
  5
37
102
{ACAD_REACTORS
330
31
102
}
100
AcDbEntity
  8
NEW_TREES
  6
CONTINUOUS
 62
     7
100
AcDbPolyline
 90
        6
 70
     1
 10
1.629583
 20
6.066207
 10
1.647083
 20
6.092457
 10
1.673333
 20
6.11579
 10
1.705417
 20
6.127457
 10
1.705417
 20
6.02829
 10
1.652917
 20
5.990373
  0
LWPOLYLINE
  5
38
102
{ACAD_REACTORS
330
31
102
}
100
AcDbEntity
  8
NEW_TREES
  6
CONTINUOUS
 62
     7
100
AcDbPolyline
 90
        8
 70
     1
 10
2.1925
 20
5.90579
 10
2.163333
 20
5.917457
 10
2.13125
 20
5.91454
 10
2.07875
 20
5.882457
 10
2.058333
 20
5.821207
 10
2.09625
 20
5.81829
 10
2.128333
 20
5.82704
 10
2.1575
 20
5.847457
  0
LWPOLYLINE
  5
39
102
{ACAD_REACTORS
330
31
102
}
100
AcDbEntity
  8
NEW_TREES
  6
CONTINUOUS
 62
     7
100
AcDbPolyline
 90
        7
 70
     1
 10
2.422917
 20
5.955373
 10
2.42875
 20
5.920373
 10
2.425833
 20
5.882457
 10
2.390833
 20
5.821207
 10
2.35875
 20
5.80079
 10
2.352917
 20
5.86204
 10
2.37625
 20
5.920373
  0
LWPOLYLINE
  5
3A
102
{ACAD_REACTORS
330
31
102
}
100
AcDbEntity
  8
NEW_TREES
  6
CONTINUOUS
 62
     7
100
AcDbPolyline
 90
        8
 70
     1
 10
1.7725
 20
5.894123
 10
1.801667
 20
5.885373
 10
1.86
 20
5.899957
 10
1.895
 20
5.952457
 10
1.897917
 20
5.98454
 10
1.862917
 20
5.987457
 10
1.804583
 20
5.95829
 10
1.784167
 20
5.929123
  0
LWPOLYLINE
  5
3B
102
{ACAD_REACTORS
330
31
102
}
100
AcDbEntity
  8
NEW_TREES
  6
CONTINUOUS
 62
     7
100
AcDbPolyline
 90
        7
 70
     1
 10
1.62375
 20
6.436623
 10
1.603333
 20
6.416207
 10
1.58
 20
6.407457
 10
1.530417
 20
6.410373
 10
1.4925
 20
6.451207
 10
1.547917
 20
6.47454
 10
1.577083
 20
6.471623
  0
LWPOLYLINE
  5
3C
102
{ACAD_REACTORS
330
31
102
}
100
AcDbEntity
  8
NEW_TREES
  6
CONTINUOUS
 62
     7
100
AcDbPolyline
 90
        8
 70
     1
 10
2.469583
 20
6.232457
 10
2.42875
 20
6.241207
 10
2.355833
 20
6.276207
 10
2.32375
 20
6.305373
 10
2.35
 20
6.319957
 10
2.37625
 20
6.32579
 10
2.42875
 20
6.311207
 10
2.46375
 20
6.267457
  0
LWPOLYLINE
  5
3D
102
{ACAD_REACTORS
330
31
102
}
100
AcDbEntity
  8
NEW_TREES
  6
CONTINUOUS
 62
     7
100
AcDbPolyline
 90
        9
 70
     1
 10
2.872083
 20
6.60579
 10
2.886667
 20
6.664123
 10
2.907083
 20
6.687457
 10
2.930417
 20
6.704957
 10
2.991667
 20
6.71079
 10
3.02375
 20
6.70204
 10
2.991667
 20
6.664123
 10
2.956667
 20
6.637873
 10
2.915833
 20
6.617457
  0
LWPOLYLINE
  5
3E
102
{ACAD_REACTORS
330
31
102
}
100
AcDbEntity
  8
NEW_TREES
  6
CONTINUOUS
 62
     7
100
AcDbPolyline
 90
        8
 70
     1
 10
2.933333
 20
6.340373
 10
2.974167
 20
6.32579
 10
3.05875
 20
6.328707
 10
3.099583
 20
6.35204
 10
3.055833
 20
6.38704
 10
3.029583
 20
6.39579
 10
3.000417
 20
6.392873
 10
2.947917
 20
6.363707
  0
LWPOLYLINE
  5
3F
102
{ACAD_REACTORS
330
31
102
}
100
AcDbEntity
  8
NEW_TREES
  6
CONTINUOUS
 62
     7
100
AcDbPolyline
 90
        8
 70
     1
 10
2.116667
 20
6.139123
 10
2.084583
 20
6.147873
 10
2.055417
 20
6.165373
 10
2.020417
 20
6.22079
 10
2.011667
 20
6.25579
 10
2.046667
 20
6.249957
 10
2.075833
 20
6.232457
 10
2.11375
 20
6.174123
  0
LWPOLYLINE
  5
40
102
{ACAD_REACTORS
330
31
102
}
100
AcDbEntity
  8
NEW_TREES
  6
CONTINUOUS
 62
     7
100
AcDbPolyline
 90
        6
 70
     1
 10
2.641667
 20
6.188707
 10
2.641667
 20
6.22079
 10
2.665
 20
6.270373
 10
2.688333
 20
6.287873
 10
2.694167
 20
6.261623
 10
2.6825
 20
6.214957
  0
LWPOLYLINE
  5
41
102
{ACAD_REACTORS
330
31
102
}
100
AcDbEntity
  8
NEW_TREES
  6
CONTINUOUS
 62
     7
100
AcDbPolyline
 90
        6
 70
     1
 10
2.457917
 20
7.416623
 10
2.495833
 20
7.45454
 10
2.501667
 20
7.50704
 10
2.4725
 20
7.55079
 10
2.443333
 20
7.501207
 10
2.440417
 20
7.47204
  0
LWPOLYLINE
  5
42
102
{ACAD_REACTORS
330
31
102
}
100
AcDbEntity
  8
NEW_TREES
  6
CONTINUOUS
 62
     7
100
AcDbPolyline
 90
        6
 70
     1
 10
1.705417
 20
6.979123
 10
1.71125
 20
7.002457
 10
1.696667
 20
7.046207
 10
1.655833
 20
7.06954
 10
1.65875
 20
7.040373
 10
1.6675
 20
7.014123
  0
LWPOLYLINE
  5
43
102
{ACAD_REACTORS
330
31
102
}
100
AcDbEntity
  8
NEW_TREES
  6
CONTINUOUS
 62
     7
100
AcDbPolyline
 90
        7
 70
     1
 10
2.982917
 20
6.949957
 10
2.985833
 20
6.98204
 10
2.98
 20
7.011207
 10
2.939167
 20
7.06079
 10
2.880833
 20
7.072457
 10
2.889583
 20
7.037457
 10
2.924583
 20
6.98204
  0
LWPOLYLINE
  5
44
102
{ACAD_REACTORS
330
31
102
}
100
AcDbEntity
  8
NEW_TREES
  6
CONTINUOUS
 62
     7
100
AcDbPolyline
 90
        7
 70
     1
 10
1.390417
 20
6.827457
 10
1.419583
 20
6.827457
 10
1.44875
 20
6.81579
 10
1.475
 20
6.79829
 10
1.507083
 20
6.739957
 10
1.475
 20
6.739957
 10
1.419583
 20
6.77204
  0
LWPOLYLINE
  5
45
102
{ACAD_REACTORS
330
31
102
}
100
AcDbEntity
  8
NEW_TREES
  6
CONTINUOUS
 62
     7
100
AcDbPolyline
 90
        8
 70
     1
 10
2.186667
 20
7.451623
 10
2.230417
 20
7.399123
 10
2.242083
 20
7.364123
 10
2.245
 20
7.326207
 10
2.221667
 20
7.334957
 10
2.198333
 20
7.346623
 10
2.180833
 20
7.369957
 10
2.175
 20
7.425373
  0
LWPOLYLINE
  5
46
102
{ACAD_REACTORS
330
31
102
}
100
AcDbEntity
  8
NEW_TREES
  6
CONTINUOUS
 62
     7
100
AcDbPolyline
 90
        7
 70
     1
 10
1.419583
 20
7.037457
 10
1.454583
 20
7.022873
 10
1.48375
 20
6.99954
 10
1.504167
 20
6.967457
 10
1.46625
 20
6.95579
 10
1.428333
 20
6.976207
 10
1.416667
 20
7.01704
  0
LWPOLYLINE
  5
47
102
{ACAD_REACTORS
330
31
102
}
100
AcDbEntity
  8
NEW_TREES
  6
CONTINUOUS
 62
     7
100
AcDbPolyline
 90
        8
 70
     1
 10
3.140417
 20
6.871207
 10
3.099583
 20
6.86829
 10
3.020833
 20
6.83329
 10
2.98875
 20
6.804123
 10
3.04125
 20
6.786623
 10
3.0675
 20
6.78954
 10
3.117083
 20
6.818707
 10
3.131667
 20
6.84204
  0
LWPOLYLINE
  5
48
102
{ACAD_REACTORS
330
31
102
}
100
AcDbEntity
  8
NEW_TREES
  6
CONTINUOUS
 62
     7
100
AcDbPolyline
 90
        8
 70
     1
 10
1.93
 20
7.53329
 10
1.906667
 20
7.518707
 10
1.874583
 20
7.469123
 10
1.871667
 20
7.439957
 10
1.889167
 20
7.381623
 10
1.909583
 20
7.361207
 10
1.9475
 20
7.422457
 10
1.953333
 20
7.460373
  0
LWPOLYLINE
  5
49
102
{ACAD_REACTORS
330
31
102
}
100
AcDbEntity
  8
NEW_TREES
  6
CONTINUOUS
 62
     7
100
AcDbPolyline
 90
        7
 70
     1
 10
2.56
 20
7.27954
 10
2.595
 20
7.302873
 10
2.650417
 20
7.369957
 10
2.667917
 20
7.407873
 10
2.609583
 20
7.40204
 10
2.56875
 20
7.364123
 10
2.554167
 20
7.308707
  0
LWPOLYLINE
  5
4A
102
{ACAD_REACTORS
330
31
102
}
100
AcDbEntity
  8
NEW_TREES
  6
CONTINUOUS
 62
     7
100
AcDbPolyline
 90
        8
 70
     1
 10
1.5975
 20
7.294123
 10
1.644167
 20
7.291207
 10
1.661667
 20
7.27954
 10
1.682083
 20
7.23579
 10
1.679167
 20
7.212457
 10
1.655833
 20
7.215373
 10
1.612083
 20
7.24454
 10
1.600417
 20
7.267873
  0
LWPOLYLINE
  5
4B
102
{ACAD_REACTORS
330
31
102
}
100
AcDbEntity
  8
NEW_TREES
  6
CONTINUOUS
 62
     7
100
AcDbPolyline
 90
        9
 70
     1
 10
2.9275
 20
7.29704
 10
2.930417
 20
7.24454
 10
2.915833
 20
7.221207
 10
2.869167
 20
7.189123
 10
2.84
 20
7.189123
 10
2.793333
 20
7.215373
 10
2.810833
 20
7.24454
 10
2.834167
 20
7.267873
 10
2.8925
 20
7.294123
  0
LWPOLYLINE
  5
4C
102
{ACAD_REACTORS
330
31
102
}
100
AcDbEntity
  8
NEW_TREES
  6
CONTINUOUS
 62
     7
100
AcDbPolyline
 90
      151
 70
     1
 10
2.259583
 20
7.55079
 10
2.274167
 20
7.431207
 10
2.294583
 20
7.311623
 10
2.606667
 20
7.483707
 10
2.294583
 20
7.267873
 10
2.28875
 20
7.189123
 10
2.291667
 20
7.110373
 10
2.303333
 20
7.03454
 10
2.320833
 20
6.853707
 10
2.338333
 20
6.83329
 10
2.387917
 20
6.818707
 10
2.414167
 20
6.821623
 10
2.548333
 20
6.879957
 10
2.624167
 20
6.92079
 10
2.653333
 20
6.949957
 10
2.694167
 20
7.02579
 10
2.749583
 20
7.19204
 10
2.793333
 20
7.364123
 10
2.793333
 20
7.267873
 10
2.77875
 20
7.17454
 10
2.755417
 20
7.081207
 10
2.875
 20
7.089957
 10
2.991667
 20
7.101623
 10
2.86625
 20
7.07829
 10
2.74375
 20
7.05204
 10
2.688333
 20
6.926623
 10
2.6475
 20
6.874123
 10
3.117083
 20
6.75454
 10
2.95375
 20
6.792457
 10
2.790417
 20
6.818707
 10
2.62125
 20
6.83329
 10
2.525
 20
6.812873
 10
2.455
 20
6.777873
 10
2.42875
 20
6.722457
 10
2.44625
 20
6.664123
 10
2.6125
 20
6.591207
 10
2.735
 20
6.582457
 10
2.860417
 20
6.582457
 10
2.982917
 20
6.53579
 10
3.047083
 20
6.524123
 10
3.114167
 20
6.515373
 10
3.05
 20
6.512457
 10
2.985833
 20
6.512457
 10
2.863333
 20
6.541623
 10
2.91
 20
6.427873
 10
2.947917
 20
6.311207
 10
2.977083
 20
6.191623
 10
2.933333
 20
6.311207
 10
2.880833
 20
6.427873
 10
2.819583
 20
6.538707
 10
2.7525
 20
6.538707
 10
2.6825
 20
6.54454
 10
2.735
 20
6.296623
 10
2.854583
 20
6.060373
 10
2.784583
 20
6.179957
 10
2.702917
 20
6.29079
 10
2.63
 20
6.541623
 10
2.455
 20
6.599957
 10
2.41125
 20
6.594123
 10
2.34125
 20
6.550373
 10
2.300417
 20
6.477457
 10
2.30625
 20
6.34329
 10
2.320833
 20
6.209123
 10
2.414167
 20
6.025373
 10
2.513333
 20
5.847457
 10
2.312083
 20
6.15079
 10
2.186667
 20
5.812457
 10
2.291667
 20
6.217873
 10
2.247917
 20
6.477457
 10
2.224583
 20
6.532873
 10
2.198333
 20
6.550373
 10
2.142917
 20
6.559123
 10
2.11375
 20
6.547457
 10
2.04375
 20
6.515373
 10
2.020417
 20
6.477457
 10
2.005833
 20
6.436623
 10
1.994167
 20
6.349123
 10
2.005833
 20
6.28204
 10
2.0
 20
6.261623
 10
1.976667
 20
6.22954
 10
1.944583
 20
6.118707
 10
1.92125
 20
6.00204
 10
1.906667
 20
5.88829
 10
1.9125
 20
6.05454
 10
1.927083
 20
6.22079
 10
1.58875
 20
6.130373
 10
1.769583
 20
6.20329
 10
1.953333
 20
6.27329
 10
1.950417
 20
6.33454
 10
1.97375
 20
6.451207
 10
1.997083
 20
6.50954
 10
1.959167
 20
6.497873
 10
1.918333
 20
6.494957
 10
1.8775
 20
6.494957
 10
1.50125
 20
6.279123
 10
1.813333
 20
6.50079
 10
1.402083
 20
6.556207
 10
1.86
 20
6.532873
 10
1.906667
 20
6.52704
 10
1.953333
 20
6.529957
 10
2.037917
 20
6.564957
 10
2.102083
 20
6.61454
 10
2.137083
 20
6.67579
 10
2.137083
 20
6.71079
 10
2.110833
 20
6.77204
 10
2.0875
 20
6.804123
 10
2.029167
 20
6.844957
 10
1.994167
 20
6.856623
 10
1.86
 20
6.795373
 10
1.79875
 20
6.75454
 10
1.399167
 20
6.687457
 10
1.638333
 20
6.734123
 10
1.755
 20
6.774957
 10
1.86875
 20
6.82454
 10
1.976667
 20
6.88579
 10
1.86875
 20
6.94704
 10
1.65
 20
6.941207
 10
1.43125
 20
6.92954
 10
1.565417
 20
6.941207
 10
1.69375
 20
6.961623
 10
1.825
 20
6.99079
 10
1.7725
 20
7.092873
 10
1.722917
 20
7.194957
 10
1.679167
 20
7.302873
 10
1.72
 20
7.20954
 10
1.769583
 20
7.119123
 10
1.825
 20
7.03454
 10
1.862917
 20
6.996623
 10
1.909583
 20
6.970373
 10
1.959167
 20
6.95579
 10
2.09625
 20
6.85954
 10
2.125417
 20
6.844957
 10
2.1575
 20
6.839123
 10
2.21875
 20
6.862457
 10
2.250833
 20
6.914957
 10
2.259583
 20
6.961623
 10
2.250833
 20
7.057873
 10
2.233333
 20
7.101623
 10
2.177917
 20
7.177457
 10
2.081667
 20
7.238707
 10
1.99125
 20
7.299957
 10
1.895
 20
7.352457
 10
1.795833
 20
7.399123
 10
2.142917
 20
7.238707
 10
2.07875
 20
7.50704
 10
2.169167
 20
7.221207
 10
2.204167
 20
7.197873
 10
2.233333
 20
7.168707
 10
2.256667
 20
7.133707
 10
2.2625
 20
7.27079
 10
2.2625
 20
7.41079
  0
LWPOLYLINE
  5
4E
100
AcDbEntity
  8
0
  6
DASHED
 62
     7
100
AcDbPolyline
 90
        5
 70
     1
 10
3.029655
 20
6.54675
 10
2.647012
 20
7.36733
 10
1.74835
 20
7.256988
 10
1.575589
 20
6.368213
 10
2.367479
 20
5.929261
  0
MTEXT
  5
4F
100
AcDbEntity
  8
0
100
AcDbMText
 10
2.287118
 20
5.599401
 30
0.0
 40
0.145832
 41
2.477431
 71
     5
 72
     5
  1
\C7;\fCalibri|b1|i0|;\H0.14583206176758;Top View\fCalibri|b0|i0|; 5" Caliper Tree
  0
MTEXT
  5
50
100
AcDbEntity
  8
0
100
AcDbMText
 10
2.699444
 20
7.646276
 30
0.0
 40
0.104167
 41
1.298611
 71
     4
 72
     5
  1
\C7;\fCalibri|b0|i0|;\H0.10416698455811;Spade Lines Typical
  0
MTEXT
  5
51
100
AcDbEntity
  8
0
100
AcDbMText
 10
0.466806
 20
7.997839
 30
0.0
 40
0.104167
 41
2.15625
 71
     4
 72
     5
  1
\C7;\fCalibri|b0|i0|;\H0.10416698455811;Rootwell Locations, Typical.\PPlace a Rootwell PRO-318 \Ppenetrating each spade blade.
  0
LINE
  5
52
100
AcDbEntity
  8
0
  6
CONTINUOUS
 62
     7
100
AcDbLine
 10
2.669919
 20
7.318206
 30
0.0
 11
3.025833
 21
7.507387
 31
0.0
  0
LINE
  5
53
100
AcDbEntity
  8
0
  6
CONTINUOUS
 62
     7
100
AcDbLine
 10
2.66125
 20
7.507387
 30
0.0
 11
3.88
 21
7.507387
 31
0.0
  0
LINE
  5
54
100
AcDbEntity
  8
0
  6
CONTINUOUS
 62
     7
100
AcDbLine
 10
0.41125
 20
7.747839
 30
0.0
 11
2.207604
 21
7.747839
 31
0.0
  0
CIRCLE
  5
55
102
{ACAD_REACTORS
330
56
102
}
100
AcDbEntity
  8
0
  6
CONTINUOUS
 62
     7
100
AcDbCircle
 10
1.755
 20
6.857214
 30
0.0
 40
0.046875
  0
HATCH
  5
56
100
AcDbEntity
  8
0
 62
     7
100
AcDbHatch
 10
0.0
 20
0.0
 30
0.0
210
0.0
220
0.0
230
1.0
  2
SOLID
 70
     1
 71
     1
 91
        1
 92
        1
 93
        1
 72
     2
 10
1.7549999999999999
 20
6.8572135416666669
 40
0.046875
 50
0.0
 51
360.0
 73
     1
 97
       27
330
33
330
34
330
35
330
36
330
37
330
38
330
39
330
3A
330
3B
330
3C
330
3D
330
3E
330
3F
330
40
330
41
330
42
330
43
330
44
330
45
330
46
330
47
330
48
330
49
330
4A
330
4B
330
4C
330
55
 75
     0
 76
     1
 98
        0
  0
CIRCLE
  5
57
102
{ACAD_REACTORS
330
58
102
}
100
AcDbEntity
  8
0
  6
CONTINUOUS
 62
     7
100
AcDbCircle
 10
2.005
 20
6.200964
 30
0.0
 40
0.046875
  0
HATCH
  5
58
100
AcDbEntity
  8
0
 62
     7
100
AcDbHatch
 10
0.0
 20
0.0
 30
0.0
210
0.0
220
0.0
230
1.0
  2
SOLID
 70
     1
 71
     1
 91
        1
 92
        1
 93
        1
 72
     2
 10
2.0049999999999999
 20
6.2009635416666669
 40
0.046875
 50
0.0
 51
360.0
 73
     1
 97
        1
330
57
 75
     0
 76
     1
 98
        0
  0
CIRCLE
  5
59
102
{ACAD_REACTORS
330
5A
102
}
100
AcDbEntity
  8
0
  6
CONTINUOUS
 62
     7
100
AcDbCircle
 10
2.6925
 20
6.318151
 30
0.0
 40
0.046875
  0
HATCH
  5
5A
100
AcDbEntity
  8
0
 62
     7
100
AcDbHatch
 10
0.0
 20
0.0
 30
0.0
210
0.0
220
0.0
230
1.0
  2
SOLID
 70
     1
 71
     1
 91
        1
 92
        1
 93
        1
 72
     2
 10
2.6924999999999999
 20
6.3181510416666669
 40
0.046875
 50
0.0
 51
360.0
 73
     1
 97
        1
330
59
 75
     0
 76
     1
 98
        0
  0
CIRCLE
  5
5B
102
{ACAD_REACTORS
330
5C
102
}
100
AcDbEntity
  8
0
  6
CONTINUOUS
 62
     7
100
AcDbCircle
 10
2.755
 20
6.982214
 30
0.0
 40
0.046875
  0
HATCH
  5
5C
100
AcDbEntity
  8
0
 62
     7
100
AcDbHatch
 10
0.0
 20
0.0
 30
0.0
210
0.0
220
0.0
230
1.0
  2
SOLID
 70
     1
 71
     1
 91
        1
 92
        1
 93
        1
 72
     2
 10
2.7549999999999999
 20
6.9822135416666669
 40
0.046875
 50
0.0
 51
360.0
 73
     1
 97
        1
330
5B
 75
     0
 76
     1
 98
        0
  0
CIRCLE
  5
5D
102
{ACAD_REACTORS
330
5E
102
}
100
AcDbEntity
  8
0
  6
CONTINUOUS
 62
     7
100
AcDbCircle
 10
2.22375
 20
7.247839
 30
0.0
 40
0.046875
  0
HATCH
  5
5E
100
AcDbEntity
  8
0
 62
     7
100
AcDbHatch
 10
0.0
 20
0.0
 30
0.0
210
0.0
220
0.0
230
1.0
  2
SOLID
 70
     1
 71
     1
 91
        1
 92
        1
 93
        1
 72
     2
 10
2.2237499999999999
 20
7.2478385416666686
 40
0.046875
 50
0.0
 51
360.0
 73
     1
 97
        1
330
5D
 75
     0
 76
     1
 98
        0
  0
MTEXT
  5
5F
100
AcDbEntity
  8
0
100
AcDbMText
 10
2.5675
 20
3.029089
 30
0.0
 40
0.104167
 41
2.111111
 71
     4
 72
     5
  1
\C7;\fCalibri|b0|i0|;\H0.10416698455811;IMPORTANT PLACEMENT TIP: \PLocate Rootwell\U+2019s so that they \Ppenetrate the spade blade and \Penter the undisturbed soil.
  0
LWPOLYLINE
  5
60
100
AcDbEntity
  8
0
  6
CONTINUOUS
 62
     7
100
AcDbPolyline
 90
        3
 70
     0
 10
2.88
 20
1.935339
 10
2.63
 20
2.435339
 10
2.88
 20
2.700964
  0
LINE
  5
61
100
AcDbEntity
  8
0
  6
CONTINUOUS
 62
     7
100
AcDbLine
 10
2.88
 20
1.935339
 30
0.0
 11
2.895625
 21
1.982214
 31
0.0
  0
LINE
  5
62
100
AcDbEntity
  8
0
  6
CONTINUOUS
 62
     7
100
AcDbLine
 10
2.87724
 20
1.935339
 30
0.0
 11
2.833125
 21
1.935339
 31
0.0
  0
MTEXT
  5
63
100
AcDbEntity
  8
0
100
AcDbMText
 10
0.060556
 20
3.379783
 30
0.0
 40
0.104167
 41
2.125
 71
     1
 72
     5
  1
\C7;\fCalibri|b1|i0|;\H0.10416698455811;TIP\fCalibri|b0|i0|;: Locate the Rootwells with one \Pon the North side of the tree as \Pthat will make them easy to locate \Pin the future.
  0
LWPOLYLINE
  5
64
100
AcDbEntity
  8
0
  6
CONTINUOUS
 62
     7
100
AcDbPolyline
 90
        3
 70
     0
 10
0.5675
 20
7.747839
 10
1.13
 20
7.029089
 10
1.708321
 20
6.852931
  0
ELLIPSE
  5
66
102
{ACAD_REACTORS
330
65
102
}
100
AcDbEntity
  8
0
  6
CONTINUOUS
 62
     7
100
AcDbEllipse
 10
4.337853
 20
2.305312
 30
0.0
 11
0.1777343749999838
 21
-0.0000000000000006
 31
0.0
210
0.0
220
0.0
230
1.0
 40
0.271796
 41
-3.1415926535899308
 42
0.0000000000001502
  0
LINE
  5
67
102
{ACAD_REACTORS
330
65
102
}
100
AcDbEntity
  8
0
  6
CONTINUOUS
 62
     7
100
AcDbLine
 10
4.516276
 20
2.386061
 30
0.0
 11
4.516276
 21
0.785427
 31
0.0
  0
LINE
  5
68
102
{ACAD_REACTORS
330
65
102
}
100
AcDbEntity
  8
0
  6
CONTINUOUS
 62
     7
100
AcDbLine
 10
4.159523
 20
2.390038
 30
0.0
 11
4.159523
 21
0.781328
 31
0.0
  0
LINE
  5
69
102
{ACAD_REACTORS
330
65
102
}
100
AcDbEntity
  8
0
  6
CONTINUOUS
 62
     7
100
AcDbLine
 10
4.331188
 20
2.2562
 30
0.0
 11
4.331188
 21
0.738081
 31
0.0
  0
LINE
  5
6A
102
{ACAD_REACTORS
330
65
102
}
100
AcDbEntity
  8
0
  6
CONTINUOUS
 62
     7
100
AcDbLine
 10
4.178348
 20
2.283147
 30
0.0
 11
4.177287
 21
0.76836
 31
0.0
  0
LINE
  5
6B
102
{ACAD_REACTORS
330
65
102
}
100
AcDbEntity
  8
0
  6
CONTINUOUS
 62
     7
100
AcDbLine
 10
4.202287
 20
2.272302
 30
0.0
 11
4.202287
 21
0.75405
 31
0.0
  0
LINE
  5
6C
102
{ACAD_REACTORS
330
65
102
}
100
AcDbEntity
  8
0
  6
CONTINUOUS
 62
     7
100
AcDbLine
 10
4.245812
 20
2.260225
 30
0.0
 11
4.245812
 21
0.744292
 31
0.0
  0
LINE
  5
6D
102
{ACAD_REACTORS
330
65
102
}
100
AcDbEntity
  8
0
  6
CONTINUOUS
 62
     7
100
AcDbLine
 10
4.287723
 20
2.257005
 30
0.0
 11
4.287723
 21
0.746064
 31
0.0
  0
ELLIPSE
  5
6E
102
{ACAD_REACTORS
330
65
102
}
100
AcDbEntity
  8
0
  6
CONTINUOUS
 62
     7
100
AcDbEllipse
 10
4.337853
 20
2.237682
 30
0.0
 11
0.1777343749999739
 21
-0.0000000000000006
 31
0.0
210
0.0
220
0.0
230
1.0
 40
0.271796
 41
-1.5707963267948988
 42
0.0000000000001782
  0
ELLIPSE
  5
6F
102
{ACAD_REACTORS
330
65
102
}
100
AcDbEntity
  8
0
  6
CONTINUOUS
 62
     7
100
AcDbEllipse
 10
4.337853
 20
2.237682
 30
0.0
 11
0.1777343749999437
 21
-0.0000000000000006
 31
0.0
210
0.0
220
0.0
230
1.0
 40
0.271796
 41
-3.1415926535900156
 42
-1.5707963267946738
  0
ELLIPSE
  5
70
102
{ACAD_REACTORS
330
65
102
}
100
AcDbEntity
  8
0
  6
CONTINUOUS
 62
     7
100
AcDbEllipse
 10
4.337853
 20
2.194398
 30
0.0
 11
0.1777343749999739
 21
-0.0000000000000006
 31
0.0
210
0.0
220
0.0
230
1.0
 40
0.271796
 41
-1.5707963267948988
 42
0.0000000000001782
  0
ELLIPSE
  5
71
102
{ACAD_REACTORS
330
65
102
}
100
AcDbEntity
  8
0
  6
CONTINUOUS
 62
     7
100
AcDbEllipse
 10
4.337853
 20
2.194398
 30
0.0
 11
0.1777343749999437
 21
-0.0000000000000006
 31
0.0
210
0.0
220
0.0
230
1.0
 40
0.271796
 41
-3.1415926535900156
 42
-1.5707963267946738
  0
ELLIPSE
  5
72
102
{ACAD_REACTORS
330
65
102
}
100
AcDbEntity
  8
0
  6
CONTINUOUS
 62
     7
100
AcDbEllipse
 10
4.337853
 20
2.107831
 30
0.0
 11
0.1777343749999739
 21
-0.0000000000000006
 31
0.0
210
0.0
220
0.0
230
1.0
 40
0.271796
 41
-1.5707963267948988
 42
0.0000000000001782
  0
ELLIPSE
  5
73
102
{ACAD_REACTORS
330
65
102
}
100
AcDbEntity
  8
0
  6
CONTINUOUS
 62
     7
100
AcDbEllipse
 10
4.337853
 20
2.107831
 30
0.0
 11
0.1777343749999437
 21
-0.0000000000000006
 31
0.0
210
0.0
220
0.0
230
1.0
 40
0.271796
 41
-3.1415926535900156
 42
-1.5707963267946738
  0
ELLIPSE
  5
74
102
{ACAD_REACTORS
330
65
102
}
100
AcDbEntity
  8
0
  6
CONTINUOUS
 62
     7
100
AcDbEllipse
 10
4.337853
 20
2.021264
 30
0.0
 11
0.1777343749999739
 21
-0.0000000000000006
 31
0.0
210
0.0
220
0.0
230
1.0
 40
0.271796
 41
-1.5707963267948988
 42
0.0000000000001782
  0
ELLIPSE
  5
75
102
{ACAD_REACTORS
330
65
102
}
100
AcDbEntity
  8
0
  6
CONTINUOUS
 62
     7
100
AcDbEllipse
 10
4.337853
 20
2.021264
 30
0.0
 11
0.1777343749999437
 21
-0.0000000000000006
 31
0.0
210
0.0
220
0.0
230
1.0
 40
0.271796
 41
-3.1415926535900156
 42
-1.5707963267946738
  0
ELLIPSE
  5
76
102
{ACAD_REACTORS
330
65
102
}
100
AcDbEntity
  8
0
  6
CONTINUOUS
 62
     7
100
AcDbEllipse
 10
4.337853
 20
1.934697
 30
0.0
 11
0.1777343749999739
 21
-0.0000000000000006
 31
0.0
210
0.0
220
0.0
230
1.0
 40
0.271796
 41
-1.5707963267948988
 42
0.0000000000001782
  0
ELLIPSE
  5
77
102
{ACAD_REACTORS
330
65
102
}
100
AcDbEntity
  8
0
  6
CONTINUOUS
 62
     7
100
AcDbEllipse
 10
4.337853
 20
1.934697
 30
0.0
 11
0.1777343749999437
 21
-0.0000000000000006
 31
0.0
210
0.0
220
0.0
230
1.0
 40
0.271796
 41
-3.1415926535900156
 42
-1.5707963267946738
  0
ELLIPSE
  5
78
102
{ACAD_REACTORS
330
65
102
}
100
AcDbEntity
  8
0
  6
CONTINUOUS
 62
     7
100
AcDbEllipse
 10
4.337853
 20
1.848131
 30
0.0
 11
0.1777343749999739
 21
-0.0000000000000006
 31
0.0
210
0.0
220
0.0
230
1.0
 40
0.271796
 41
-1.5707963267948988
 42
0.0000000000001782
  0
ELLIPSE
  5
79
102
{ACAD_REACTORS
330
65
102
}
100
AcDbEntity
  8
0
  6
CONTINUOUS
 62
     7
100
AcDbEllipse
 10
4.337853
 20
1.848131
 30
0.0
 11
0.1777343749999437
 21
-0.0000000000000006
 31
0.0
210
0.0
220
0.0
230
1.0
 40
0.271796
 41
-3.1415926535900156
 42
-1.5707963267946738
  0
ELLIPSE
  5
7A
102
{ACAD_REACTORS
330
65
102
}
100
AcDbEntity
  8
0
  6
CONTINUOUS
 62
     7
100
AcDbEllipse
 10
4.337853
 20
1.761564
 30
0.0
 11
0.1777343749999739
 21
-0.0000000000000006
 31
0.0
210
0.0
220
0.0
230
1.0
 40
0.271796
 41
-1.5707963267948988
 42
0.0000000000001782
  0
ELLIPSE
  5
7B
102
{ACAD_REACTORS
330
65
102
}
100
AcDbEntity
  8
0
  6
CONTINUOUS
 62
     7
100
AcDbEllipse
 10
4.337853
 20
1.761564
 30
0.0
 11
0.1777343749999437
 21
-0.0000000000000006
 31
0.0
210
0.0
220
0.0
230
1.0
 40
0.271796
 41
-3.1415926535900156
 42
-1.5707963267946738
  0
ELLIPSE
  5
7C
102
{ACAD_REACTORS
330
65
102
}
100
AcDbEntity
  8
0
  6
CONTINUOUS
 62
     7
100
AcDbEllipse
 10
4.337853
 20
1.674997
 30
0.0
 11
0.1777343749999739
 21
-0.0000000000000006
 31
0.0
210
0.0
220
0.0
230
1.0
 40
0.271796
 41
-1.5707963267948988
 42
0.0000000000001782
  0
ELLIPSE
  5
7D
102
{ACAD_REACTORS
330
65
102
}
100
AcDbEntity
  8
0
  6
CONTINUOUS
 62
     7
100
AcDbEllipse
 10
4.337853
 20
1.674997
 30
0.0
 11
0.1777343749999437
 21
-0.0000000000000006
 31
0.0
210
0.0
220
0.0
230
1.0
 40
0.271796
 41
-3.1415926535900156
 42
-1.5707963267946738
  0
ELLIPSE
  5
7E
102
{ACAD_REACTORS
330
65
102
}
100
AcDbEntity
  8
0
  6
CONTINUOUS
 62
     7
100
AcDbEllipse
 10
4.337853
 20
1.58843
 30
0.0
 11
0.1777343749999739
 21
-0.0000000000000006
 31
0.0
210
0.0
220
0.0
230
1.0
 40
0.271796
 41
-1.5707963267948988
 42
0.0000000000001782
  0
ELLIPSE
  5
7F
102
{ACAD_REACTORS
330
65
102
}
100
AcDbEntity
  8
0
  6
CONTINUOUS
 62
     7
100
AcDbEllipse
 10
4.337853
 20
1.58843
 30
0.0
 11
0.1777343749999437
 21
-0.0000000000000006
 31
0.0
210
0.0
220
0.0
230
1.0
 40
0.271796
 41
-3.1415926535900156
 42
-1.5707963267946738
  0
ELLIPSE
  5
80
102
{ACAD_REACTORS
330
65
102
}
100
AcDbEntity
  8
0
  6
CONTINUOUS
 62
     7
100
AcDbEllipse
 10
4.337853
 20
1.501863
 30
0.0
 11
0.1777343749999739
 21
-0.0000000000000006
 31
0.0
210
0.0
220
0.0
230
1.0
 40
0.271796
 41
-1.5707963267948988
 42
0.0000000000001782
  0
ELLIPSE
  5
81
102
{ACAD_REACTORS
330
65
102
}
100
AcDbEntity
  8
0
  6
CONTINUOUS
 62
     7
100
AcDbEllipse
 10
4.337853
 20
1.501863
 30
0.0
 11
0.1777343749999437
 21
-0.0000000000000006
 31
0.0
210
0.0
220
0.0
230
1.0
 40
0.271796
 41
-3.1415926535900156
 42
-1.5707963267946738
  0
ELLIPSE
  5
82
102
{ACAD_REACTORS
330
65
102
}
100
AcDbEntity
  8
0
  6
CONTINUOUS
 62
     7
100
AcDbEllipse
 10
4.337853
 20
1.415296
 30
0.0
 11
0.1777343749999739
 21
-0.0000000000000006
 31
0.0
210
0.0
220
0.0
230
1.0
 40
0.271796
 41
-1.5707963267948988
 42
0.0000000000001782
  0
ELLIPSE
  5
83
102
{ACAD_REACTORS
330
65
102
}
100
AcDbEntity
  8
0
  6
CONTINUOUS
 62
     7
100
AcDbEllipse
 10
4.337853
 20
1.415296
 30
0.0
 11
0.1777343749999437
 21
-0.0000000000000006
 31
0.0
210
0.0
220
0.0
230
1.0
 40
0.271796
 41
-3.1415926535900156
 42
-1.5707963267946738
  0
ELLIPSE
  5
84
102
{ACAD_REACTORS
330
65
102
}
100
AcDbEntity
  8
0
  6
CONTINUOUS
 62
     7
100
AcDbEllipse
 10
4.337853
 20
1.328729
 30
0.0
 11
0.1777343749999739
 21
-0.0000000000000006
 31
0.0
210
0.0
220
0.0
230
1.0
 40
0.271796
 41
-1.5707963267948988
 42
0.0000000000001782
  0
ELLIPSE
  5
85
102
{ACAD_REACTORS
330
65
102
}
100
AcDbEntity
  8
0
  6
CONTINUOUS
 62
     7
100
AcDbEllipse
 10
4.337853
 20
1.328729
 30
0.0
 11
0.1777343749999437
 21
-0.0000000000000006
 31
0.0
210
0.0
220
0.0
230
1.0
 40
0.271796
 41
-3.1415926535900156
 42
-1.5707963267946738
  0
ELLIPSE
  5
86
102
{ACAD_REACTORS
330
65
102
}
100
AcDbEntity
  8
0
  6
CONTINUOUS
 62
     7
100
AcDbEllipse
 10
4.337853
 20
1.242162
 30
0.0
 11
0.1777343749999739
 21
-0.0000000000000006
 31
0.0
210
0.0
220
0.0
230
1.0
 40
0.271796
 41
-1.5707963267948988
 42
0.0000000000001782
  0
ELLIPSE
  5
87
102
{ACAD_REACTORS
330
65
102
}
100
AcDbEntity
  8
0
  6
CONTINUOUS
 62
     7
100
AcDbEllipse
 10
4.337853
 20
1.242162
 30
0.0
 11
0.1777343749999437
 21
-0.0000000000000006
 31
0.0
210
0.0
220
0.0
230
1.0
 40
0.271796
 41
-3.1415926535900156
 42
-1.5707963267946738
  0
ELLIPSE
  5
88
102
{ACAD_REACTORS
330
65
102
}
100
AcDbEntity
  8
0
  6
CONTINUOUS
 62
     7
100
AcDbEllipse
 10
4.337853
 20
1.155595
 30
0.0
 11
0.1777343749999739
 21
-0.0000000000000006
 31
0.0
210
0.0
220
0.0
230
1.0
 40
0.271796
 41
-1.5707963267948988
 42
0.0000000000001782
  0
ELLIPSE
  5
89
102
{ACAD_REACTORS
330
65
102
}
100
AcDbEntity
  8
0
  6
CONTINUOUS
 62
     7
100
AcDbEllipse
 10
4.337853
 20
1.155595
 30
0.0
 11
0.1777343749999437
 21
-0.0000000000000006
 31
0.0
210
0.0
220
0.0
230
1.0
 40
0.271796
 41
-3.1415926535900156
 42
-1.5707963267946738
  0
ELLIPSE
  5
8A
102
{ACAD_REACTORS
330
65
102
}
100
AcDbEntity
  8
0
  6
CONTINUOUS
 62
     7
100
AcDbEllipse
 10
4.337853
 20
1.069028
 30
0.0
 11
0.1777343749999739
 21
-0.0000000000000006
 31
0.0
210
0.0
220
0.0
230
1.0
 40
0.271796
 41
-1.5707963267948988
 42
0.0000000000001782
  0
ELLIPSE
  5
8B
102
{ACAD_REACTORS
330
65
102
}
100
AcDbEntity
  8
0
  6
CONTINUOUS
 62
     7
100
AcDbEllipse
 10
4.337853
 20
1.069028
 30
0.0
 11
0.1777343749999437
 21
-0.0000000000000006
 31
0.0
210
0.0
220
0.0
230
1.0
 40
0.271796
 41
-3.1415926535900156
 42
-1.5707963267946738
  0
ELLIPSE
  5
8C
102
{ACAD_REACTORS
330
65
102
}
100
AcDbEntity
  8
0
  6
CONTINUOUS
 62
     7
100
AcDbEllipse
 10
4.337853
 20
0.982461
 30
0.0
 11
0.1777343749999739
 21
-0.0000000000000006
 31
0.0
210
0.0
220
0.0
230
1.0
 40
0.271796
 41
-1.5707963267948988
 42
0.0000000000001782
  0
ELLIPSE
  5
8D
102
{ACAD_REACTORS
330
65
102
}
100
AcDbEntity
  8
0
  6
CONTINUOUS
 62
     7
100
AcDbEllipse
 10
4.337853
 20
0.982461
 30
0.0
 11
0.1777343749999437
 21
-0.0000000000000006
 31
0.0
210
0.0
220
0.0
230
1.0
 40
0.271796
 41
-3.1415926535900156
 42
-1.5707963267946738
  0
ELLIPSE
  5
8E
102
{ACAD_REACTORS
330
65
102
}
100
AcDbEntity
  8
0
  6
CONTINUOUS
 62
     7
100
AcDbEllipse
 10
4.337853
 20
0.895894
 30
0.0
 11
0.1777343749999739
 21
-0.0000000000000006
 31
0.0
210
0.0
220
0.0
230
1.0
 40
0.271796
 41
-1.5707963267948988
 42
0.0000000000001782
  0
ELLIPSE
  5
8F
102
{ACAD_REACTORS
330
65
102
}
100
AcDbEntity
  8
0
  6
CONTINUOUS
 62
     7
100
AcDbEllipse
 10
4.337853
 20
0.895894
 30
0.0
 11
0.1777343749999437
 21
-0.0000000000000006
 31
0.0
210
0.0
220
0.0
230
1.0
 40
0.271796
 41
-3.1415926535900156
 42
-1.5707963267946738
  0
ELLIPSE
  5
90
102
{ACAD_REACTORS
330
65
102
}
100
AcDbEntity
  8
0
  6
CONTINUOUS
 62
     7
100
AcDbEllipse
 10
4.337853
 20
0.785174
 30
0.0
 11
0.1777343749999739
 21
-0.0000000000000006
 31
0.0
210
0.0
220
0.0
230
1.0
 40
0.271796
 41
-1.5707963267948988
 42
0.0000000000001782
  0
ELLIPSE
  5
91
102
{ACAD_REACTORS
330
65
102
}
100
AcDbEntity
  8
0
  6
CONTINUOUS
 62
     7
100
AcDbEllipse
 10
4.337853
 20
0.785174
 30
0.0
 11
0.1777343749999437
 21
-0.0000000000000006
 31
0.0
210
0.0
220
0.0
230
1.0
 40
0.271796
 41
-3.1415926535900156
 42
-1.5707963267946738
  0
LINE
  5
92
102
{ACAD_REACTORS
330
65
102
}
100
AcDbEntity
  8
0
  6
CONTINUOUS
 62
     7
100
AcDbLine
 10
4.488862
 20
2.277133
 30
0.0
 11
4.488862
 21
0.762694
 31
0.0
  0
LINE
  5
93
102
{ACAD_REACTORS
330
65
102
}
100
AcDbEntity
  8
0
  6
CONTINUOUS
 62
     7
100
AcDbLine
 10
4.448766
 20
2.264251
 30
0.0
 11
4.448766
 21
0.747397
 31
0.0
  0
LINE
  5
94
102
{ACAD_REACTORS
330
65
102
}
100
AcDbEntity
  8
0
  6
CONTINUOUS
 62
     7
100
AcDbLine
 10
4.395023
 20
2.257005
 30
0.0
 11
4.395023
 21
0.740956
 31
0.0
  0
ELLIPSE
  5
95
102
{ACAD_REACTORS
330
65
102
}
100
AcDbEntity
  8
0
  6
CONTINUOUS
 62
     7
100
AcDbEllipse
 10
4.337853
 20
2.427691
 30
0.0
 11
0.1777343749999879
 21
-0.0000000000000006
 31
0.0
210
0.0
220
0.0
230
1.0
 40
0.271796
 41
0.0000000000000301
 42
3.1415926535897896
  0
ELLIPSE
  5
96
102
{ACAD_REACTORS
330
65
102
}
100
AcDbEntity
  8
0
  6
CONTINUOUS
 62
     7
100
AcDbEllipse
 10
4.337853
 20
2.311753
 30
0.0
 11
0.1777343749999788
 21
-0.0000000000000006
 31
0.0
210
0.0
220
0.0
230
1.0
 40
0.271796
 41
-1.5707963267948983
 42
0.0000000000001782
  0
ELLIPSE
  5
97
102
{ACAD_REACTORS
330
65
102
}
100
AcDbEntity
  8
0
  6
CONTINUOUS
 62
     7
100
AcDbEllipse
 10
4.337853
 20
2.311753
 30
0.0
 11
0.1777343749999484
 21
-0.0000000000000006
 31
0.0
210
0.0
220
0.0
230
1.0
 40
0.271796
 41
-3.1415926535900165
 42
-1.5707963267946734
  0
ELLIPSE
  5
98
102
{ACAD_REACTORS
330
65
102
}
100
AcDbEntity
  8
0
  6
CONTINUOUS
 62
     7
100
AcDbEllipse
 10
4.337853
 20
2.318516
 30
0.0
 11
0.1777343749999788
 21
-0.0000000000000006
 31
0.0
210
0.0
220
0.0
230
1.0
 40
0.271796
 41
-1.5707963267948983
 42
0.0000000000001782
  0
ELLIPSE
  5
99
102
{ACAD_REACTORS
330
65
102
}
100
AcDbEntity
  8
0
  6
CONTINUOUS
 62
     7
100
AcDbEllipse
 10
4.337853
 20
2.318516
 30
0.0
 11
0.1777343749999484
 21
-0.0000000000000006
 31
0.0
210
0.0
220
0.0
230
1.0
 40
0.271796
 41
-3.1415926535900165
 42
-1.5707963267946734
  0
ELLIPSE
  5
9A
102
{ACAD_REACTORS
330
65
102
}
100
AcDbEntity
  8
0
  6
CONTINUOUS
 62
     7
100
AcDbEllipse
 10
4.337853
 20
2.325279
 30
0.0
 11
0.1777343749999788
 21
-0.0000000000000006
 31
0.0
210
0.0
220
0.0
230
1.0
 40
0.271796
 41
-1.5707963267948983
 42
0.0000000000001782
  0
ELLIPSE
  5
9B
102
{ACAD_REACTORS
330
65
102
}
100
AcDbEntity
  8
0
  6
CONTINUOUS
 62
     7
100
AcDbEllipse
 10
4.337853
 20
2.325279
 30
0.0
 11
0.1777343749999484
 21
-0.0000000000000006
 31
0.0
210
0.0
220
0.0
230
1.0
 40
0.271796
 41
-3.1415926535900165
 42
-1.5707963267946734
  0
ELLIPSE
  5
9C
102
{ACAD_REACTORS
330
65
102
}
100
AcDbEntity
  8
0
  6
CONTINUOUS
 62
     7
100
AcDbEllipse
 10
4.337853
 20
2.332042
 30
0.0
 11
0.1777343749999788
 21
-0.0000000000000006
 31
0.0
210
0.0
220
0.0
230
1.0
 40
0.271796
 41
-1.5707963267948983
 42
0.0000000000001782
  0
ELLIPSE
  5
9D
102
{ACAD_REACTORS
330
65
102
}
100
AcDbEntity
  8
0
  6
CONTINUOUS
 62
     7
100
AcDbEllipse
 10
4.337853
 20
2.332042
 30
0.0
 11
0.1777343749999484
 21
-0.0000000000000006
 31
0.0
210
0.0
220
0.0
230
1.0
 40
0.271796
 41
-3.1415926535900165
 42
-1.5707963267946734
  0
ELLIPSE
  5
9E
102
{ACAD_REACTORS
330
65
102
}
100
AcDbEntity
  8
0
  6
CONTINUOUS
 62
     7
100
AcDbEllipse
 10
4.337853
 20
2.338805
 30
0.0
 11
0.1777343749999788
 21
-0.0000000000000006
 31
0.0
210
0.0
220
0.0
230
1.0
 40
0.271796
 41
-1.5707963267948983
 42
0.0000000000001782
  0
ELLIPSE
  5
9F
102
{ACAD_REACTORS
330
65
102
}
100
AcDbEntity
  8
0
  6
CONTINUOUS
 62
     7
100
AcDbEllipse
 10
4.337853
 20
2.338805
 30
0.0
 11
0.1777343749999484
 21
-0.0000000000000006
 31
0.0
210
0.0
220
0.0
230
1.0
 40
0.271796
 41
-3.1415926535900165
 42
-1.5707963267946734
  0
ELLIPSE
  5
A0
102
{ACAD_REACTORS
330
65
102
}
100
AcDbEntity
  8
0
  6
CONTINUOUS
 62
     7
100
AcDbEllipse
 10
4.337853
 20
2.349306
 30
0.0
 11
0.1777343749999788
 21
-0.0000000000000006
 31
0.0
210
0.0
220
0.0
230
1.0
 40
0.271796
 41
-1.5707963267948983
 42
0.0000000000001782
  0
ELLIPSE
  5
A1
102
{ACAD_REACTORS
330
65
102
}
100
AcDbEntity
  8
0
  6
CONTINUOUS
 62
     7
100
AcDbEllipse
 10
4.337853
 20
2.349306
 30
0.0
 11
0.1777343749999484
 21
-0.0000000000000006
 31
0.0
210
0.0
220
0.0
230
1.0
 40
0.271796
 41
-3.1415926535900165
 42
-1.5707963267946734
  0
ELLIPSE
  5
A2
102
{ACAD_REACTORS
330
65
102
}
100
AcDbEntity
  8
0
  6
CONTINUOUS
 62
     7
100
AcDbEllipse
 10
4.337853
 20
2.371181
 30
0.0
 11
0.1777343749999788
 21
-0.0000000000000006
 31
0.0
210
0.0
220
0.0
230
1.0
 40
0.271796
 41
-1.5707963267948983
 42
0.0000000000001782
  0
ELLIPSE
  5
A3
102
{ACAD_REACTORS
330
65
102
}
100
AcDbEntity
  8
0
  6
CONTINUOUS
 62
     7
100
AcDbEllipse
 10
4.337853
 20
2.371181
 30
0.0
 11
0.1777343749999484
 21
-0.0000000000000006
 31
0.0
210
0.0
220
0.0
230
1.0
 40
0.271796
 41
-3.1415926535900165
 42
-1.5707963267946734
  0
ELLIPSE
  5
A4
102
{ACAD_REACTORS
330
65
102
}
100
AcDbEntity
  8
0
  6
CONTINUOUS
 62
     7
100
AcDbEllipse
 10
4.337853
 20
2.380212
 30
0.0
 11
0.1777343749999788
 21
-0.0000000000000006
 31
0.0
210
0.0
220
0.0
230
1.0
 40
0.271796
 41
-1.5707963267948983
 42
0.0000000000001782
  0
ELLIPSE
  5
A5
102
{ACAD_REACTORS
330
65
102
}
100
AcDbEntity
  8
0
  6
CONTINUOUS
 62
     7
100
AcDbEllipse
 10
4.337853
 20
2.380212
 30
0.0
 11
0.1777343749999484
 21
-0.0000000000000006
 31
0.0
210
0.0
220
0.0
230
1.0
 40
0.271796
 41
-3.1415926535900165
 42
-1.5707963267946734
  0
ELLIPSE
  5
A6
102
{ACAD_REACTORS
330
65
102
}
100
AcDbEntity
  8
0
  6
CONTINUOUS
 62
     7
100
AcDbEllipse
 10
4.337853
 20
2.386975
 30
0.0
 11
0.1777343749999788
 21
-0.0000000000000006
 31
0.0
210
0.0
220
0.0
230
1.0
 40
0.271796
 41
-1.5707963267948983
 42
0.0000000000001782
  0
ELLIPSE
  5
A7
102
{ACAD_REACTORS
330
65
102
}
100
AcDbEntity
  8
0
  6
CONTINUOUS
 62
     7
100
AcDbEllipse
 10
4.337853
 20
2.386975
 30
0.0
 11
0.1777343749999484
 21
-0.0000000000000006
 31
0.0
210
0.0
220
0.0
230
1.0
 40
0.271796
 41
-3.1415926535900165
 42
-1.5707963267946734
  0
ELLIPSE
  5
A8
102
{ACAD_REACTORS
330
65
102
}
100
AcDbEntity
  8
0
  6
CONTINUOUS
 62
     7
100
AcDbEllipse
 10
4.337853
 20
2.393738
 30
0.0
 11
0.1777343749999788
 21
-0.0000000000000006
 31
0.0
210
0.0
220
0.0
230
1.0
 40
0.271796
 41
-1.5707963267948983
 42
0.0000000000001782
  0
ELLIPSE
  5
A9
102
{ACAD_REACTORS
330
65
102
}
100
AcDbEntity
  8
0
  6
CONTINUOUS
 62
     7
100
AcDbEllipse
 10
4.337853
 20
2.393738
 30
0.0
 11
0.1777343749999484
 21
-0.0000000000000006
 31
0.0
210
0.0
220
0.0
230
1.0
 40
0.271796
 41
-3.1415926535900165
 42
-1.5707963267946734
  0
ELLIPSE
  5
AA
102
{ACAD_REACTORS
330
65
102
}
100
AcDbEntity
  8
0
  6
CONTINUOUS
 62
     7
100
AcDbEllipse
 10
4.337853
 20
2.400501
 30
0.0
 11
0.1777343749999788
 21
-0.0000000000000006
 31
0.0
210
0.0
220
0.0
230
1.0
 40
0.271796
 41
-1.5707963267948983
 42
0.0000000000001782
  0
ELLIPSE
  5
AB
102
{ACAD_REACTORS
330
65
102
}
100
AcDbEntity
  8
0
  6
CONTINUOUS
 62
     7
100
AcDbEllipse
 10
4.337853
 20
2.400501
 30
0.0
 11
0.1777343749999484
 21
-0.0000000000000006
 31
0.0
210
0.0
220
0.0
230
1.0
 40
0.271796
 41
-3.1415926535900165
 42
-1.5707963267946734
  0
ELLIPSE
  5
AC
102
{ACAD_REACTORS
330
65
102
}
100
AcDbEntity
  8
0
  6
CONTINUOUS
 62
     7
100
AcDbEllipse
 10
4.337853
 20
2.407264
 30
0.0
 11
0.1777343749999788
 21
-0.0000000000000006
 31
0.0
210
0.0
220
0.0
230
1.0
 40
0.271796
 41
-1.5707963267948983
 42
0.0000000000001782
  0
ELLIPSE
  5
AD
102
{ACAD_REACTORS
330
65
102
}
100
AcDbEntity
  8
0
  6
CONTINUOUS
 62
     7
100
AcDbEllipse
 10
4.337853
 20
2.407264
 30
0.0
 11
0.1777343749999484
 21
-0.0000000000000006
 31
0.0
210
0.0
220
0.0
230
1.0
 40
0.271796
 41
-3.1415926535900165
 42
-1.5707963267946734
  0
ELLIPSE
  5
AE
102
{ACAD_REACTORS
330
65
102
}
100
AcDbEntity
  8
0
  6
CONTINUOUS
 62
     7
100
AcDbEllipse
 10
4.337853
 20
2.414165
 30
0.0
 11
0.1777343749999788
 21
-0.0000000000000006
 31
0.0
210
0.0
220
0.0
230
1.0
 40
0.271796
 41
-1.5707963267948986
 42
0.000000000000178
  0
ELLIPSE
  5
AF
102
{ACAD_REACTORS
330
65
102
}
100
AcDbEntity
  8
0
  6
CONTINUOUS
 62
     7
100
AcDbEllipse
 10
4.337853
 20
2.414165
 30
0.0
 11
0.1777343749999484
 21
-0.0000000000000006
 31
0.0
210
0.0
220
0.0
230
1.0
 40
0.271796
 41
-3.1415926535900165
 42
-1.5707963267946734
  0
ELLIPSE
  5
B0
102
{ACAD_REACTORS
330
65
102
}
100
AcDbEntity
  8
0
  6
CONTINUOUS
 62
     7
100
AcDbEllipse
 10
4.337853
 20
2.420928
 30
0.0
 11
0.1777343749999788
 21
-0.0000000000000006
 31
0.0
210
0.0
220
0.0
230
1.0
 40
0.271796
 41
-1.5707963267948986
 42
0.000000000000178
  0
ELLIPSE
  5
B1
102
{ACAD_REACTORS
330
65
102
}
100
AcDbEntity
  8
0
  6
CONTINUOUS
 62
     7
100
AcDbEllipse
 10
4.337853
 20
2.420928
 30
0.0
 11
0.1777343749999484
 21
-0.0000000000000006
 31
0.0
210
0.0
220
0.0
230
1.0
 40
0.271796
 41
-3.1415926535900165
 42
-1.5707963267946734
  0
ELLIPSE
  5
B2
102
{ACAD_REACTORS
330
65
102
}
100
AcDbEntity
  8
0
  6
CONTINUOUS
 62
     7
100
AcDbEllipse
 10
4.337853
 20
2.427691
 30
0.0
 11
0.1777343749999788
 21
-0.0000000000000006
 31
0.0
210
0.0
220
0.0
230
1.0
 40
0.271796
 41
-1.5707963267948986
 42
0.000000000000178
  0
ELLIPSE
  5
B3
102
{ACAD_REACTORS
330
65
102
}
100
AcDbEntity
  8
0
  6
CONTINUOUS
 62
     7
100
AcDbEllipse
 10
4.337853
 20
2.427691
 30
0.0
 11
0.1777343749999484
 21
-0.0000000000000006
 31
0.0
210
0.0
220
0.0
230
1.0
 40
0.271796
 41
-3.1415926535900165
 42
-1.5707963267946734
  0
ELLIPSE
  5
B4
102
{ACAD_REACTORS
330
65
102
}
100
AcDbEntity
  8
0
  6
CONTINUOUS
 62
     7
100
AcDbEllipse
 10
4.337853
 20
2.359785
 30
0.0
 11
0.1777343749999788
 21
-0.0000000000000006
 31
0.0
210
0.0
220
0.0
230
1.0
 40
0.271796
 41
-1.5707963267948983
 42
0.0000000000001782
  0
ELLIPSE
  5
B5
102
{ACAD_REACTORS
330
65
102
}
100
AcDbEntity
  8
0
  6
CONTINUOUS
 62
     7
100
AcDbEllipse
 10
4.337853
 20
2.359785
 30
0.0
 11
0.1777343749999484
 21
-0.0000000000000006
 31
0.0
210
0.0
220
0.0
230
1.0
 40
0.271796
 41
-3.1415926535900165
 42
-1.5707963267946734
  0
ELLIPSE
  5
B6
102
{ACAD_REACTORS
330
65
102
}
100
AcDbEntity
  8
0
  6
CONTINUOUS
 62
     7
100
AcDbEllipse
 10
4.338542
 20
2.363433
 30
0.0
 11
0.1777343749999788
 21
-0.0000000000000006
 31
0.0
210
0.0
220
0.0
230
1.0
 40
0.271796
 41
-1.5707963267948983
 42
0.0000000000001782
  0
ELLIPSE
  5
B7
102
{ACAD_REACTORS
330
65
102
}
100
AcDbEntity
  8
0
  6
CONTINUOUS
 62
     7
100
AcDbEllipse
 10
4.338542
 20
2.363433
 30
0.0
 11
0.1777343749999484
 21
-0.0000000000000006
 31
0.0
210
0.0
220
0.0
230
1.0
 40
0.271796
 41
-3.1415926535900165
 42
-1.5707963267946734
  0
ELLIPSE
  5
B8
102
{ACAD_REACTORS
330
65
102
}
100
AcDbEntity
  8
0
  6
CONTINUOUS
 62
     7
100
AcDbEllipse
 10
4.335807
 20
2.347027
 30
0.0
 11
0.1777343749999788
 21
-0.0000000000000006
 31
0.0
210
0.0
220
0.0
230
1.0
 40
0.271796
 41
-1.5707963267948983
 42
0.0000000000001782
  0
ELLIPSE
  5
B9
102
{ACAD_REACTORS
330
65
102
}
100
AcDbEntity
  8
0
  6
CONTINUOUS
 62
     7
100
AcDbEllipse
 10
4.338542
 20
2.347027
 30
0.0
 11
0.1777343749999484
 21
-0.0000000000000006
 31
0.0
210
0.0
220
0.0
230
1.0
 40
0.271796
 41
-3.1415926535900165
 42
-1.5707963267946734
  0
ELLIPSE
  5
BA
102
{ACAD_REACTORS
330
65
102
}
100
AcDbEntity
  8
0
  6
CONTINUOUS
 62
     7
100
AcDbEllipse
 10
4.335807
 20
2.347027
 30
0.0
 11
0.1777343749999788
 21
-0.0000000000000006
 31
0.0
210
0.0
220
0.0
230
1.0
 40
0.271796
 41
-1.5707963267948983
 42
0.0000000000001782
  0
ELLIPSE
  5
BB
102
{ACAD_REACTORS
330
65
102
}
100
AcDbEntity
  8
0
  6
CONTINUOUS
 62
     7
100
AcDbEllipse
 10
4.337174
 20
2.343837
 30
0.0
 11
0.1777343749999484
 21
-0.0000000000000006
 31
0.0
210
0.0
220
0.0
230
1.0
 40
0.271796
 41
-3.1415926535900165
 42
-1.5707963267946734
  0
ELLIPSE
  5
BC
102
{ACAD_REACTORS
330
65
102
}
100
AcDbEntity
  8
0
  6
CONTINUOUS
 62
     7
100
AcDbEllipse
 10
4.337853
 20
2.350217
 30
0.0
 11
0.1777343749999788
 21
-0.0000000000000006
 31
0.0
210
0.0
220
0.0
230
1.0
 40
0.271796
 41
-1.5707963267948983
 42
0.0000000000001782
  0
ELLIPSE
  5
BD
102
{ACAD_REACTORS
330
65
102
}
100
AcDbEntity
  8
0
  6
CONTINUOUS
 62
     7
100
AcDbEllipse
 10
4.338542
 20
2.3626
 30
0.0
 11
0.1777343749999788
 21
-0.0000000000000006
 31
0.0
210
0.0
220
0.0
230
1.0
 40
0.271796
 41
-1.5707963267948983
 42
0.0000000000001782
  0
ELLIPSE
  5
BE
102
{ACAD_REACTORS
330
65
102
}
100
AcDbEntity
  8
0
  6
CONTINUOUS
 62
     7
100
AcDbEllipse
 10
4.338542
 20
2.3626
 30
0.0
 11
0.1777343749999484
 21
-0.0000000000000006
 31
0.0
210
0.0
220
0.0
230
1.0
 40
0.271796
 41
-3.1415926535900165
 42
-1.5707963267946734
  0
ELLIPSE
  5
BF
102
{ACAD_REACTORS
330
65
102
}
100
AcDbEntity
  8
0
  6
CONTINUOUS
 62
     7
100
AcDbEllipse
 10
4.516276
 20
2.343837
 30
0.0
 11
-0.1777343749999788
 21
-0.0000000000000006
 31
0.0
210
0.0
220
0.0
230
1.0
 40
0.271796
 41
-0.0000000000001782
 42
1.5707963267948983
  0
ELLIPSE
  5
C0
102
{ACAD_REACTORS
330
65
102
}
100
AcDbEntity
  8
0
  6
CONTINUOUS
 62
     7
100
AcDbEllipse
 10
4.338542
 20
2.353219
 30
0.0
 11
0.1777343749999788
 21
-0.0000000000000006
 31
0.0
210
0.0
220
0.0
230
1.0
 40
0.271796
 41
-1.5707963267948983
 42
0.0000000000001782
  0
ELLIPSE
  5
C1
102
{ACAD_REACTORS
330
65
102
}
100
AcDbEntity
  8
0
  6
CONTINUOUS
 62
     7
100
AcDbEllipse
 10
4.338542
 20
2.353219
 30
0.0
 11
0.1777343749999484
 21
-0.0000000000000006
 31
0.0
210
0.0
220
0.0
230
1.0
 40
0.271796
 41
-3.1415926535900165
 42
-1.5707963267946734
  0
LINE
  5
C2
102
{ACAD_REACTORS
330
65
102
}
100
AcDbEntity
  8
0
  6
CONTINUOUS
 62
     7
100
AcDbLine
 10
4.374771
 20
2.258058
 30
0.0
 11
4.374771
 21
0.74201
 31
0.0
  0
LINE
  5
C3
102
{ACAD_REACTORS
330
65
102
}
100
AcDbEntity
  8
0
  6
CONTINUOUS
 62
     7
100
AcDbLine
 10
4.419868
 20
2.258365
 30
0.0
 11
4.419868
 21
0.742317
 31
0.0
  0
LINE
  5
C4
102
{ACAD_REACTORS
330
65
102
}
100
AcDbEntity
  8
0
  6
CONTINUOUS
 62
     7
100
AcDbLine
 10
4.469062
 20
2.268636
 30
0.0
 11
4.469062
 21
0.752588
 31
0.0
  0
LINE
  5
C5
102
{ACAD_REACTORS
330
65
102
}
100
AcDbEntity
  8
0
  6
CONTINUOUS
 62
     7
100
AcDbLine
 10
4.50266
 20
2.283136
 30
0.0
 11
4.50266
 21
0.767087
 31
0.0
  0
LINE
  5
C6
102
{ACAD_REACTORS
330
65
102
}
100
AcDbEntity
  8
0
  6
CONTINUOUS
 62
     7
100
AcDbLine
 10
4.222142
 20
2.264439
 30
0.0
 11
4.222142
 21
0.748506
 31
0.0
  0
LINE
  5
C7
102
{ACAD_REACTORS
330
65
102
}
100
AcDbEntity
  8
0
  6
CONTINUOUS
 62
     7
100
AcDbLine
 10
4.267751
 20
2.260921
 30
0.0
 11
4.267751
 21
0.74998
 31
0.0
  0
LINE
  5
C8
102
{ACAD_REACTORS
330
65
102
}
100
AcDbEntity
  8
0
  6
CONTINUOUS
 62
     7
100
AcDbLine
 10
4.308094
 20
2.257687
 30
0.0
 11
4.308094
 21
0.746746
 31
0.0
  0
LINE
  5
C9
102
{ACAD_REACTORS
330
65
102
}
100
AcDbEntity
  8
0
  6
CONTINUOUS
 62
     7
100
AcDbLine
 10
4.352228
 20
2.257163
 30
0.0
 11
4.352228
 21
0.746222
 31
0.0
  0
ELLIPSE
  5
CA
102
{ACAD_REACTORS
330
65
102
}
100
AcDbEntity
  8
0
  6
CONTINUOUS
 62
     7
100
AcDbEllipse
 10
4.340634
 20
2.408095
 30
0.0
 11
0.1777343749999879
 21
-0.0000000000000006
 31
0.0
210
0.0
220
0.0
230
1.0
 40
0.271796
 41
0.0000000000000303
 42
3.1415926535897896
  0
ELLIPSE
  5
CB
102
{ACAD_REACTORS
330
65
102
}
100
AcDbEntity
  8
0
  6
CONTINUOUS
 62
     7
100
AcDbEllipse
 10
4.340634
 20
2.410373
 30
0.0
 11
0.1777343749999879
 21
0.0000000000000006
 31
0.0
210
0.0
220
0.0
230
1.0
 40
0.271796
 41
-3.1415926535897896
 42
-0.0000000000000303
  0
ELLIPSE
  5
CC
102
{ACAD_REACTORS
330
CD
102
}
100
AcDbEntity
  8
0
  6
CONTINUOUS
 62
     7
100
AcDbEllipse
 10
4.337899
 20
2.407639
 30
0.0
 11
0.21875
 21
0.0
 31
0.0
210
0.0
220
0.0
230
1.0
 40
0.2375
 41
0.0
 42
6.2831853071796004
  0
HATCH
  5
CD
102
{ACAD_REACTORS
330
65
102
}
100
AcDbEntity
  8
0
 62
   254
100
AcDbHatch
 10
0.0
 20
0.0
 30
0.0
210
0.0
220
0.0
230
1.0
  2
SOLID
 70
     1
 71
     1
 91
        1
 92
        1
 93
        1
 72
     3
 10
4.3378993055555561
 20
2.40763910590274
 11
0.21875
 21
0.0
 40
0.2375
 50
0.0
 51
360.0
 73
     1
 97
        1
330
CC
 75
     0
 76
     1
 98
        0
  0
LINE
  5
CE
102
{ACAD_REACTORS
330
65
102
}
100
AcDbEntity
  8
0
  6
CONTINUOUS
 62
     7
100
AcDbLine
 10
4.119298
 20
2.409557
 30
0.0
 11
4.119298
 21
2.427643
 31
0.0
  0
LINE
  5
CF
102
{ACAD_REACTORS
330
65
102
}
100
AcDbEntity
  8
0
  6
CONTINUOUS
 62
     7
100
AcDbLine
 10
4.556649
 20
2.409557
 30
0.0
 11
4.556649
 21
2.427643
 31
0.0
  0
ELLIPSE
  5
D0
102
{ACAD_REACTORS
330
D1
102
}
100
AcDbEntity
  8
0
  6
CONTINUOUS
 62
     7
100
AcDbEllipse
 10
4.337899
 20
2.424045
 30
0.0
 11
0.21875
 21
0.0
 31
0.0
210
0.0
220
0.0
230
1.0
 40
0.2375
 41
0.0
 42
6.2831853071796004
  0
HATCH
  5
D1
102
{ACAD_REACTORS
330
65
102
}
100
AcDbEntity
  8
0
 62
   254
100
AcDbHatch
 10
0.0
 20
0.0
 30
0.0
210
0.0
220
0.0
230
1.0
  2
SOLID
 70
     1
 71
     1
 91
        1
 92
        1
 93
        1
 72
     3
 10
4.3378993055555561
 20
2.4240453559027402
 11
0.21875
 21
0.0
 40
0.2375
 50
0.0
 51
360.0
 73
     1
 97
        1
330
D0
 75
     0
 76
     1
 98
        0
  0
ELLIPSE
  5
D2
102
{ACAD_REACTORS
330
D5
102
}
100
AcDbEntity
  8
0
  6
CONTINUOUS
 62
     7
100
AcDbEllipse
 10
4.338076
 20
2.432613
 30
0.0
 11
0.1750000000000091
 21
0.0
 31
0.0
210
0.0
220
0.0
230
1.0
 40
0.435417
 41
0.0526559214887238
 42
3.0262784546891033
  0
ELLIPSE
  5
D3
102
{ACAD_REACTORS
330
D5
102
}
100
AcDbEntity
  8
0
  6
CONTINUOUS
 62
     7
100
AcDbEllipse
 10
4.337235
 20
2.435109
 30
0.0
 11
0.1750000000000002
 21
0.0
 31
0.0
210
0.0
220
0.0
230
1.0
 40
0.2375
 41
-3.2930583189790559
 42
0.0364453527025444
  0
LINE
  5
D4
102
{ACAD_REACTORS
330
D5
102
}
100
AcDbEntity
  8
0
  6
CONTINUOUS
 62
     7
100
AcDbLine
 10
4.512119
 20
2.436623
 30
0.0
 11
4.512834
 21
2.436623
 31
0.0
  0
HATCH
  5
D5
102
{ACAD_REACTORS
330
65
102
}
100
AcDbEntity
  8
0
 62
   254
100
AcDbHatch
 10
0.0
 20
0.0
 30
0.0
210
0.0
220
0.0
230
1.0
  2
SOLID
 70
     1
 71
     1
 91
        1
 92
        1
 93
        3
 72
     3
 10
4.3380764310616291
 20
2.4326130642746717
 11
0.1750000000000091
 21
0.0
 40
0.435417
 50
3.016962
 51
173.392983
 73
     1
 72
     3
 10
4.3372350849077836
 20
2.4351090573042784
 11
0.1750000000000002
 21
0.0
 40
0.2375
 50
171.321657
 51
2.088165
 73
     1
 72
     1
 10
4.5121188746950978
 20
2.4366234819457886
 11
4.5128338805806933
 21
2.4366234819457886
 97
        3
330
D2
330
D3
330
D4
 75
     0
 76
     1
 98
        0
  0
ELLIPSE
  5
D6
102
{ACAD_REACTORS
330
D7
102
}
100
AcDbEntity
  8
0
  6
CONTINUOUS
 62
     7
100
AcDbEllipse
 10
4.262776
 20
2.421311
 30
0.0
 11
0.0272396987759462
 21
-0.0023831648407559
 31
0.0
210
0.0
220
0.0
230
1.0
 40
0.4
 41
0.0
 42
6.2831853071796004
  0
HATCH
  5
D7
102
{ACAD_REACTORS
330
65
102
}
100
AcDbEntity
  8
0
 62
   254
100
AcDbHatch
 10
0.0
 20
0.0
 30
0.0
210
0.0
220
0.0
230
1.0
  2
SOLID
 70
     1
 71
     1
 91
        1
 92
        1
 93
        1
 72
     3
 10
4.2627759502923981
 20
2.42131098090274
 11
0.0272396987759462
 21
-0.0023831648407559
 40
0.4
 50
0.0
 51
360.0
 73
     1
 97
        1
330
D6
 75
     0
 76
     1
 98
        0
  0
ELLIPSE
  5
D8
102
{ACAD_REACTORS
330
D9
102
}
100
AcDbEntity
  8
0
  6
CONTINUOUS
 62
     7
100
AcDbEllipse
 10
4.355745
 20
2.421095
 30
0.0
 11
-0.0272396987759462
 21
-0.0023831648407563
 31
0.0
210
0.0
220
0.0
230
1.0
 40
0.4
 41
0.0
 42
6.2831853071796004
  0
HATCH
  5
D9
102
{ACAD_REACTORS
330
65
102
}
100
AcDbEntity
  8
0
 62
   254
100
AcDbHatch
 10
0.0
 20
0.0
 30
0.0
210
0.0
220
0.0
230
1.0
  2
SOLID
 70
     1
 71
     1
 91
        1
 92
        1
 93
        1
 72
     3
 10
4.355744700292397
 20
2.4210950211272753
 11
-0.0272396987759462
 21
-0.0023831648407563
 40
0.4
 50
0.0
 51
360.0
 73
     0
 97
        1
330
D8
 75
     0
 76
     1
 98
        0
  0
ELLIPSE
  5
DA
102
{ACAD_REACTORS
330
65
102
}
100
AcDbEntity
  8
0
  6
CONTINUOUS
 62
     7
100
AcDbEllipse
 10
4.338542
 20
0.839931
 30
0.0
 11
0.1777343749999739
 21
-0.0000000000000006
 31
0.0
210
0.0
220
0.0
230
1.0
 40
0.271796
 41
-1.5707963267948988
 42
0.0000000000001782
  0
ELLIPSE
  5
DB
102
{ACAD_REACTORS
330
65
102
}
100
AcDbEntity
  8
0
  6
CONTINUOUS
 62
     7
100
AcDbEllipse
 10
4.338542
 20
0.839931
 30
0.0
 11
0.1777343749999437
 21
-0.0000000000000006
 31
0.0
210
0.0
220
0.0
230
1.0
 40
0.271796
 41
-3.1415926535900156
 42
-1.5707963267946738
  0
LINE
  5
DC
100
AcDbEntity
  8
0
  6
CONTINUOUS
 62
     7
100
AcDbLine
 10
4.11667
 20
2.398614
 30
0.0
 11
3.808076
 21
2.398614
 31
0.0
  0
LINE
  5
DD
100
AcDbEntity
  8
0
  6
CONTINUOUS
 62
     7
100
AcDbLine
 10
4.847494
 20
2.398614
 30
0.0
 11
4.558422
 21
2.398614
 31
0.0
  0
MTEXT
  5
DE
100
AcDbEntity
  8
0
100
AcDbMText
 10
3.818151
 20
0.715503
 30
0.0
 40
0.104167
 41
2.344618
 71
     1
 72
     5
  1
\C7;\fCalibri|b0|i0|;\H0.10416698455811;Place Rootwell in ground so the top\U+2019s \Plip ring rest on the ground.\PStand-alone or connected to Low \PVolume irrigation.
  0
LINE
  5
DF
100
AcDbEntity
  8
0
  6
CONTINUOUS
 62
     7
100
AcDbLine
 10
4.661277
 20
2.036467
 30
0.0
 11
5.613941
 21
2.036467
 31
0.0
  0
LINE
  5
E0
100
AcDbEntity
  8
0
  6
CONTINUOUS
 62
     7
100
AcDbLine
 10
5.613941
 20
2.036467
 30
0.0
 11
5.613941
 21
2.118186
 31
0.0
  0
LINE
  5
E1
100
AcDbEntity
  8
0
  6
CONTINUOUS
 62
     7
100
AcDbLine
 10
5.613941
 20
2.118186
 30
0.0
 11
4.656083
 21
2.118186
 31
0.0
  0
ELLIPSE
  5
E2
100
AcDbEntity
  8
0
  6
CONTINUOUS
 62
     7
100
AcDbEllipse
 10
4.639332
 20
2.093476
 30
0.0
 11
0.0
 21
-0.0328821557746232
 31
0.0
210
0.0
220
0.0
230
1.0
 40
0.77217
 41
0.907922503144735
 42
2.4210977268040472
  0
ELLIPSE
  5
E3
100
AcDbEntity
  8
0
  6
CONTINUOUS
 62
     7
100
AcDbEllipse
 10
4.639332
 20
2.053005
 30
0.0
 11
0.0
 21
-0.0328821557746297
 31
0.0
210
0.0
220
0.0
230
1.0
 40
0.77217
 41
1.0437778949714644
 42
2.2336701504451426
  0
MTEXT
  5
E4
100
AcDbEntity
  8
0
100
AcDbMText
 10
4.787769
 20
1.890959
 30
0.0
 40
0.083333
 41
1.00803
 71
     4
 72
     5
  1
\C7;\fCalibri|b0|i0|;\H0.083333015441895;High Volume \PIrrigation Feed line
  0
ELLIPSE
  5
E5
100
AcDbEntity
  8
0
  6
CONTINUOUS
 62
     7
100
AcDbEllipse
 10
4.504427
 20
2.419977
 30
0.0
 11
0.1404857127214299
 21
-0.0000000000000005
 31
0.0
210
0.0
220
0.0
230
1.0
 40
0.187451
 41
1.5707963267949103
 42
3.1415926535898087
  0
ELLIPSE
  5
E6
100
AcDbEntity
  8
0
  6
CONTINUOUS
 62
     7
100
AcDbEllipse
 10
4.504427
 20
2.118186
 30
0.0
 11
-0.0000000000000025
 21
-0.3281250000000003
 31
0.0
210
0.0
220
0.0
230
1.0
 40
0.667091
 41
1.5707963267949028
 42
3.1415926535898113
  0
MTEXT
  5
E7
100
AcDbEntity
  8
0
100
AcDbMText
 10
4.96724
 20
2.380339
 30
0.0
 40
0.083333
 41
0.749132
 71
     4
 72
     5
  1
\C7;\fCalibri|b0|i0|;\H0.083333015441895;Low Volume \PIrrigation Line
  0
LINE
  5
E8
100
AcDbEntity
  8
0
  6
CONTINUOUS
 62
     7
100
AcDbLine
 10
4.754566
 20
2.206077
 30
0.0
 11
4.957691
 21
2.297873
 31
0.0
  0
MTEXT
  5
E9
100
AcDbEntity
  8
0
100
AcDbMText
 10
2.575964
 20
8.529089
 30
0.0
 40
0.125001
 41
4.75
 71
     5
 72
     5
  1
\C7;\fCalibri|b1|i0|;\H0.12500095367432;ROOTWELL PRO-318  Placement for Spaded Transplanted Trees
  0
MTEXT
  5
EA
100
AcDbEntity
  8
0
100
AcDbMText
 10
4.506519
 20
2.60678
 30
0.0
 40
0.083333
 41
1.3125
 71
     4
 72
     5
  1
\C7;\fCalibri|b0|i1|;\H0.083333015441895;Option for tree watering:
  0
LINE
  5
EB
100
AcDbEntity
  8
0
  6
CONTINUOUS
 62
     7
100
AcDbLine
 10
4.669714
 20
2.036467
 30
0.0
 11
4.685339
 21
2.114592
 31
0.0
  0
LINE
  5
EC
100
AcDbEntity
  8
0
  6
CONTINUOUS
 62
     7
100
AcDbLine
 10
4.682753
 20
2.036467
 30
0.0
 11
4.698378
 21
2.114592
 31
0.0
  0
LINE
  5
ED
100
AcDbEntity
  8
0
  6
CONTINUOUS
 62
     7
100
AcDbLine
 10
4.695792
 20
2.036467
 30
0.0
 11
4.711417
 21
2.114592
 31
0.0
  0
LINE
  5
EE
100
AcDbEntity
  8
0
  6
CONTINUOUS
 62
     7
100
AcDbLine
 10
4.708831
 20
2.036467
 30
0.0
 11
4.724456
 21
2.114592
 31
0.0
  0
LINE
  5
EF
100
AcDbEntity
  8
0
  6
CONTINUOUS
 62
     7
100
AcDbLine
 10
4.72187
 20
2.036467
 30
0.0
 11
4.737495
 21
2.114592
 31
0.0
  0
LINE
  5
F0
100
AcDbEntity
  8
0
  6
CONTINUOUS
 62
     7
100
AcDbLine
 10
4.734909
 20
2.036467
 30
0.0
 11
4.750534
 21
2.114592
 31
0.0
  0
LINE
  5
F1
100
AcDbEntity
  8
0
  6
CONTINUOUS
 62
     7
100
AcDbLine
 10
4.747949
 20
2.036467
 30
0.0
 11
4.763574
 21
2.114592
 31
0.0
  0
LINE
  5
F2
100
AcDbEntity
  8
0
  6
CONTINUOUS
 62
     7
100
AcDbLine
 10
4.760988
 20
2.036467
 30
0.0
 11
4.776613
 21
2.114592
 31
0.0
  0
LINE
  5
F3
100
AcDbEntity
  8
0
  6
CONTINUOUS
 62
     7
100
AcDbLine
 10
4.774027
 20
2.036467
 30
0.0
 11
4.789652
 21
2.114592
 31
0.0
  0
LINE
  5
F4
100
AcDbEntity
  8
0
  6
CONTINUOUS
 62
     7
100
AcDbLine
 10
4.800105
 20
2.036467
 30
0.0
 11
4.81573
 21
2.114592
 31
0.0
  0
LINE
  5
F5
100
AcDbEntity
  8
0
  6
CONTINUOUS
 62
     7
100
AcDbLine
 10
4.826184
 20
2.036467
 30
0.0
 11
4.841809
 21
2.114592
 31
0.0
  0
LINE
  5
F6
100
AcDbEntity
  8
0
  6
CONTINUOUS
 62
     7
100
AcDbLine
 10
4.852262
 20
2.036467
 30
0.0
 11
4.867887
 21
2.114592
 31
0.0
  0
LINE
  5
F7
100
AcDbEntity
  8
0
  6
CONTINUOUS
 62
     7
100
AcDbLine
 10
4.865301
 20
2.036467
 30
0.0
 11
4.880926
 21
2.114592
 31
0.0
  0
LINE
  5
F8
100
AcDbEntity
  8
0
  6
CONTINUOUS
 62
     7
100
AcDbLine
 10
4.904419
 20
2.036467
 30
0.0
 11
4.920044
 21
2.114592
 31
0.0
  0
LINE
  5
F9
100
AcDbEntity
  8
0
  6
CONTINUOUS
 62
     7
100
AcDbLine
 10
4.930497
 20
2.036467
 30
0.0
 11
4.946122
 21
2.114592
 31
0.0
  0
LINE
  5
FA
100
AcDbEntity
  8
0
  6
CONTINUOUS
 62
     7
100
AcDbLine
 10
4.995693
 20
2.036467
 30
0.0
 11
5.011318
 21
2.114592
 31
0.0
  0
LINE
  5
FB
100
AcDbEntity
  8
0
  6
CONTINUOUS
 62
     7
100
AcDbLine
 10
5.03481
 20
2.036467
 30
0.0
 11
5.050435
 21
2.114592
 31
0.0
  0
LINE
  5
FC
100
AcDbEntity
  8
0
  6
CONTINUOUS
 62
     7
100
AcDbLine
 10
5.04785
 20
2.036467
 30
0.0
 11
5.063475
 21
2.114592
 31
0.0
  0
LINE
  5
FD
100
AcDbEntity
  8
0
  6
CONTINUOUS
 62
     7
100
AcDbLine
 10
5.073928
 20
2.036467
 30
0.0
 11
5.089553
 21
2.114592
 31
0.0
  0
LINE
  5
FE
100
AcDbEntity
  8
0
  6
CONTINUOUS
 62
     7
100
AcDbLine
 10
5.100006
 20
2.036467
 30
0.0
 11
5.115631
 21
2.114592
 31
0.0
  0
LINE
  5
FF
100
AcDbEntity
  8
0
  6
CONTINUOUS
 62
     7
100
AcDbLine
 10
5.126085
 20
2.036467
 30
0.0
 11
5.14171
 21
2.114592
 31
0.0
  0
LINE
  5
100
100
AcDbEntity
  8
0
  6
CONTINUOUS
 62
     7
100
AcDbLine
 10
5.165202
 20
2.036467
 30
0.0
 11
5.180827
 21
2.114592
 31
0.0
  0
LINE
  5
101
100
AcDbEntity
  8
0
  6
CONTINUOUS
 62
     7
100
AcDbLine
 10
5.19128
 20
2.036467
 30
0.0
 11
5.206905
 21
2.114592
 31
0.0
  0
LINE
  5
102
100
AcDbEntity
  8
0
  6
CONTINUOUS
 62
     7
100
AcDbLine
 10
5.20432
 20
2.036467
 30
0.0
 11
5.219945
 21
2.114592
 31
0.0
  0
LINE
  5
103
100
AcDbEntity
  8
0
  6
CONTINUOUS
 62
     7
100
AcDbLine
 10
5.230398
 20
2.036467
 30
0.0
 11
5.246023
 21
2.114592
 31
0.0
  0
LINE
  5
104
100
AcDbEntity
  8
0
  6
CONTINUOUS
 62
     7
100
AcDbLine
 10
5.256476
 20
2.036467
 30
0.0
 11
5.272101
 21
2.114592
 31
0.0
  0
LINE
  5
105
100
AcDbEntity
  8
0
  6
CONTINUOUS
 62
     7
100
AcDbLine
 10
5.282555
 20
2.036467
 30
0.0
 11
5.29818
 21
2.114592
 31
0.0
  0
LINE
  5
106
100
AcDbEntity
  8
0
  6
CONTINUOUS
 62
     7
100
AcDbLine
 10
5.321672
 20
2.036467
 30
0.0
 11
5.337297
 21
2.114592
 31
0.0
  0
LINE
  5
107
100
AcDbEntity
  8
0
  6
CONTINUOUS
 62
     7
100
AcDbLine
 10
5.347751
 20
2.036467
 30
0.0
 11
5.363376
 21
2.114592
 31
0.0
  0
LINE
  5
108
100
AcDbEntity
  8
0
  6
CONTINUOUS
 62
     7
100
AcDbLine
 10
5.36079
 20
2.036467
 30
0.0
 11
5.376415
 21
2.114592
 31
0.0
  0
LINE
  5
109
100
AcDbEntity
  8
0
  6
CONTINUOUS
 62
     7
100
AcDbLine
 10
5.373829
 20
2.036467
 30
0.0
 11
5.389454
 21
2.114592
 31
0.0
  0
LINE
  5
10A
100
AcDbEntity
  8
0
  6
CONTINUOUS
 62
     7
100
AcDbLine
 10
5.386868
 20
2.036467
 30
0.0
 11
5.402493
 21
2.114592
 31
0.0
  0
LINE
  5
10B
100
AcDbEntity
  8
0
  6
CONTINUOUS
 62
     7
100
AcDbLine
 10
5.399907
 20
2.036467
 30
0.0
 11
5.415532
 21
2.114592
 31
0.0
  0
LINE
  5
10C
100
AcDbEntity
  8
0
  6
CONTINUOUS
 62
     7
100
AcDbLine
 10
5.412946
 20
2.036467
 30
0.0
 11
5.428571
 21
2.114592
 31
0.0
  0
LINE
  5
10D
100
AcDbEntity
  8
0
  6
CONTINUOUS
 62
     7
100
AcDbLine
 10
5.425986
 20
2.036467
 30
0.0
 11
5.441611
 21
2.114592
 31
0.0
  0
LINE
  5
10E
100
AcDbEntity
  8
0
  6
CONTINUOUS
 62
     7
100
AcDbLine
 10
5.439025
 20
2.036467
 30
0.0
 11
5.45465
 21
2.114592
 31
0.0
  0
LINE
  5
10F
100
AcDbEntity
  8
0
  6
CONTINUOUS
 62
     7
100
AcDbLine
 10
5.452064
 20
2.036467
 30
0.0
 11
5.467689
 21
2.114592
 31
0.0
  0
LINE
  5
110
100
AcDbEntity
  8
0
  6
CONTINUOUS
 62
     7
100
AcDbLine
 10
5.465103
 20
2.036467
 30
0.0
 11
5.480728
 21
2.114592
 31
0.0
  0
LINE
  5
111
100
AcDbEntity
  8
0
  6
CONTINUOUS
 62
     7
100
AcDbLine
 10
5.478142
 20
2.036467
 30
0.0
 11
5.493767
 21
2.114592
 31
0.0
  0
LINE
  5
112
100
AcDbEntity
  8
0
  6
CONTINUOUS
 62
     7
100
AcDbLine
 10
5.491181
 20
2.036467
 30
0.0
 11
5.506806
 21
2.114592
 31
0.0
  0
LINE
  5
113
100
AcDbEntity
  8
0
  6
CONTINUOUS
 62
     7
100
AcDbLine
 10
5.504221
 20
2.036467
 30
0.0
 11
5.519846
 21
2.114592
 31
0.0
  0
LINE
  5
114
100
AcDbEntity
  8
0
  6
CONTINUOUS
 62
     7
100
AcDbLine
 10
5.51726
 20
2.036467
 30
0.0
 11
5.532885
 21
2.114592
 31
0.0
  0
LINE
  5
115
100
AcDbEntity
  8
0
  6
CONTINUOUS
 62
     7
100
AcDbLine
 10
5.530299
 20
2.036467
 30
0.0
 11
5.545924
 21
2.114592
 31
0.0
  0
LINE
  5
116
100
AcDbEntity
  8
0
  6
CONTINUOUS
 62
     7
100
AcDbLine
 10
5.543338
 20
2.036467
 30
0.0
 11
5.558963
 21
2.114592
 31
0.0
  0
LINE
  5
117
100
AcDbEntity
  8
0
  6
CONTINUOUS
 62
     7
100
AcDbLine
 10
5.556377
 20
2.036467
 30
0.0
 11
5.572002
 21
2.114592
 31
0.0
  0
LINE
  5
118
100
AcDbEntity
  8
0
  6
CONTINUOUS
 62
     7
100
AcDbLine
 10
5.569416
 20
2.036467
 30
0.0
 11
5.585041
 21
2.114592
 31
0.0
  0
LINE
  5
119
100
AcDbEntity
  8
0
  6
CONTINUOUS
 62
     7
100
AcDbLine
 10
5.582456
 20
2.036467
 30
0.0
 11
5.598081
 21
2.114592
 31
0.0
  0
LINE
  5
11A
100
AcDbEntity
  8
0
  6
CONTINUOUS
 62
     7
100
AcDbLine
 10
5.595495
 20
2.036467
 30
0.0
 11
5.61112
 21
2.114592
 31
0.0
  0
LINE
  5
11B
100
AcDbEntity
  8
0
  6
CONTINUOUS
 62
     7
100
AcDbLine
 10
4.943536
 20
2.036467
 30
0.0
 11
4.959161
 21
2.114592
 31
0.0
  0
LINE
  5
11C
100
AcDbEntity
  8
0
  6
CONTINUOUS
 62
     7
100
AcDbLine
 10
4.982654
 20
2.036467
 30
0.0
 11
4.998279
 21
2.114592
 31
0.0
  0
LINE
  5
11D
100
AcDbEntity
  8
0
  6
CONTINUOUS
 62
     7
100
AcDbLine
 10
5.021771
 20
2.036467
 30
0.0
 11
5.037396
 21
2.114592
 31
0.0
  0
LINE
  5
11E
100
AcDbEntity
  8
0
  6
CONTINUOUS
 62
     7
100
AcDbLine
 10
5.060889
 20
2.036467
 30
0.0
 11
5.076514
 21
2.114592
 31
0.0
  0
LINE
  5
11F
100
AcDbEntity
  8
0
  6
CONTINUOUS
 62
     7
100
AcDbLine
 10
5.086967
 20
2.036467
 30
0.0
 11
5.102592
 21
2.114592
 31
0.0
  0
LINE
  5
120
100
AcDbEntity
  8
0
  6
CONTINUOUS
 62
     7
100
AcDbLine
 10
5.113045
 20
2.036467
 30
0.0
 11
5.12867
 21
2.114592
 31
0.0
  0
LINE
  5
121
100
AcDbEntity
  8
0
  6
CONTINUOUS
 62
     7
100
AcDbLine
 10
5.139124
 20
2.036467
 30
0.0
 11
5.154749
 21
2.114592
 31
0.0
  0
LINE
  5
122
100
AcDbEntity
  8
0
  6
CONTINUOUS
 62
     7
100
AcDbLine
 10
5.152163
 20
2.036467
 30
0.0
 11
5.167788
 21
2.114592
 31
0.0
  0
LINE
  5
123
100
AcDbEntity
  8
0
  6
CONTINUOUS
 62
     7
100
AcDbLine
 10
5.178241
 20
2.036467
 30
0.0
 11
5.193866
 21
2.114592
 31
0.0
  0
LINE
  5
124
100
AcDbEntity
  8
0
  6
CONTINUOUS
 62
     7
100
AcDbLine
 10
5.217359
 20
2.036467
 30
0.0
 11
5.232984
 21
2.114592
 31
0.0
  0
LINE
  5
125
100
AcDbEntity
  8
0
  6
CONTINUOUS
 62
     7
100
AcDbLine
 10
5.243437
 20
2.036467
 30
0.0
 11
5.259062
 21
2.114592
 31
0.0
  0
LINE
  5
126
100
AcDbEntity
  8
0
  6
CONTINUOUS
 62
     7
100
AcDbLine
 10
5.269515
 20
2.036467
 30
0.0
 11
5.28514
 21
2.114592
 31
0.0
  0
LINE
  5
127
100
AcDbEntity
  8
0
  6
CONTINUOUS
 62
     7
100
AcDbLine
 10
5.295594
 20
2.036467
 30
0.0
 11
5.311219
 21
2.114592
 31
0.0
  0
LINE
  5
128
100
AcDbEntity
  8
0
  6
CONTINUOUS
 62
     7
100
AcDbLine
 10
5.308633
 20
2.036467
 30
0.0
 11
5.324258
 21
2.114592
 31
0.0
  0
LINE
  5
129
100
AcDbEntity
  8
0
  6
CONTINUOUS
 62
     7
100
AcDbLine
 10
5.334711
 20
2.036467
 30
0.0
 11
5.350336
 21
2.114592
 31
0.0
  0
LINE
  5
12A
100
AcDbEntity
  8
0
  6
CONTINUOUS
 62
     7
100
AcDbLine
 10
4.787066
 20
2.036467
 30
0.0
 11
4.802691
 21
2.114592
 31
0.0
  0
LINE
  5
12B
100
AcDbEntity
  8
0
  6
CONTINUOUS
 62
     7
100
AcDbLine
 10
4.813144
 20
2.036467
 30
0.0
 11
4.828769
 21
2.114592
 31
0.0
  0
LINE
  5
12C
100
AcDbEntity
  8
0
  6
CONTINUOUS
 62
     7
100
AcDbLine
 10
4.839223
 20
2.036467
 30
0.0
 11
4.854848
 21
2.114592
 31
0.0
  0
LINE
  5
12D
100
AcDbEntity
  8
0
  6
CONTINUOUS
 62
     7
100
AcDbLine
 10
4.87834
 20
2.036467
 30
0.0
 11
4.893965
 21
2.114592
 31
0.0
  0
LINE
  5
12E
100
AcDbEntity
  8
0
  6
CONTINUOUS
 62
     7
100
AcDbLine
 10
4.891379
 20
2.036467
 30
0.0
 11
4.907004
 21
2.114592
 31
0.0
  0
LINE
  5
12F
100
AcDbEntity
  8
0
  6
CONTINUOUS
 62
     7
100
AcDbLine
 10
4.917458
 20
2.036467
 30
0.0
 11
4.933083
 21
2.114592
 31
0.0
  0
LINE
  5
130
100
AcDbEntity
  8
0
  6
CONTINUOUS
 62
     7
100
AcDbLine
 10
4.956575
 20
2.036467
 30
0.0
 11
4.9722
 21
2.114592
 31
0.0
  0
LINE
  5
131
100
AcDbEntity
  8
0
  6
CONTINUOUS
 62
     7
100
AcDbLine
 10
4.969615
 20
2.036467
 30
0.0
 11
4.98524
 21
2.114592
 31
0.0
  0
LINE
  5
132
100
AcDbEntity
  8
0
  6
CONTINUOUS
 62
     7
100
AcDbLine
 10
5.008732
 20
2.036467
 30
0.0
 11
5.024357
 21
2.114592
 31
0.0
  0
ENDSEC
  0
SECTION
  2
OBJECTS
  0
DICTIONARY
  5
C
100
AcDbDictionary
  3
ACAD_GROUP
350
D
  3
ACAD_MLINESTYLE
350
1B
  0
DICTIONARY
  5
D
102
{ACAD_REACTORS
330
C
102
}
100
AcDbDictionary
  3
VISIOGROUP_0
350
31
  3
VISIOGROUP_1
350
65
  0
DICTIONARY
  5
1B
102
{ACAD_REACTORS
330
C
102
}
100
AcDbDictionary
  3
STANDARD
350
1C
  0
MLINESTYLE
  5
1C
102
{ACAD_REACTORS
330
1B
102
}
100
AcDbMlineStyle
  2
STANDARD
 70
     0
  3

 62
   256
 51
90.0
 52
90.0
 71
     2
 49
0.5
 62
   256
  6
BYLAYER
 49
-0.5
 62
   256
  6
BYLAYER
  0
DICTIONARY
  5
29
102
{ACAD_REACTORS
330
C
102
}
100
AcDbDictionary
  3
MODEL
350
2A
  3
LAYOUT1
350
2B
  0
DICTIONARY
  5
2C
102
{ACAD_REACTORS
330
C
102
}
100
AcDbDictionary
  0
GROUP
  5
31
102
{ACAD_REACTORS
330
D
102
}
100
AcDbGroup
300
Group created by Visio.
 70
     0
 71
     1
340
33
340
34
340
35
340
36
340
37
340
38
340
39
340
3A
340
3B
340
3C
340
3D
340
3E
340
3F
340
40
340
41
340
42
340
43
340
44
340
45
340
46
340
47
340
48
340
49
340
4A
340
4B
340
4C
  0
GROUP
  5
65
102
{ACAD_REACTORS
330
D
102
}
100
AcDbGroup
300
Group created by Visio.
 70
     0
 71
     1
340
66
340
67
340
68
340
69
340
6A
340
6B
340
6C
340
6D
340
6E
340
6F
340
70
340
71
340
72
340
73
340
74
340
75
340
76
340
77
340
78
340
79
340
7A
340
7B
340
7C
340
7D
340
7E
340
7F
340
80
340
81
340
82
340
83
340
84
340
85
340
86
340
87
340
88
340
89
340
8A
340
8B
340
8C
340
8D
340
8E
340
8F
340
90
340
91
340
92
340
93
340
94
340
95
340
96
340
97
340
98
340
99
340
9A
340
9B
340
9C
340
9D
340
9E
340
9F
340
A0
340
A1
340
A2
340
A3
340
A4
340
A5
340
A6
340
A7
340
A8
340
A9
340
AA
340
AB
340
AC
340
AD
340
AE
340
AF
340
B0
340
B1
340
B2
340
B3
340
B4
340
B5
340
B6
340
B7
340
B8
340
B9
340
BA
340
BB
340
BC
340
BD
340
BE
340
BF
340
C0
340
C1
340
C2
340
C3
340
C4
340
C5
340
C6
340
C7
340
C8
340
C9
340
CA
340
CB
340
CC
340
CD
340
CE
340
CF
340
D0
340
D1
340
D2
340
D3
340
D4
340
D5
340
D6
340
D7
340
D8
340
D9
340
DA
340
DB
  0
ENDSEC
  0
EOF
